Guitar Tabs, Chords and Lyrics


All The Small Things  Blink 182

E|----------------------------------------------------|


B|------||*-----------66665555------------------------|


G|-----------55555555-55555555------------------------|


D|-5--3------55555555-33333333-55555555-7777--33------|


A|-5--3-||*--33333333----------55555555-7777--33------|


E|-3--1------------------------33333333-5555--11------|

Rhythm Figure 2
E|----------------------------------------------------|
B|----------------------------------------------------|
G|-55555555-10-10-10-10--9999--77777777---------------|
D|-55555555--x--x--x--x--xxxx--xxxxxxxx---7777-333----|
A|-33333333--8--8--8--8--7777--55555555---7777-333----|
E|----------------------------------------5555-111----|

Verse 1, play these chords palm muted
[C5]All the, [G5]small things
[F5]True care, [G5]truth brings
[C5]I'll take, [G5]one lift
[F5]Your ride, [G5]best trip
[C5]Always, [G5]I know
[F5]You'll be [G5]at my show
[C5]Watching,[G5] waiting,[F5] commiserati[G5]ng
C5 (let ring)
Say it ain't so, I will not go, turn the lights off, carry me home
During the Na Na part, play a C5 for 16 beats, then an G5 for eight beats,
and finally an F5 for eight beats.
Then play Rythm Figure 2
Verse 2, Play these chords palm muted
[C5]Late night, [G5]come home
[F5]Work sucks, [G5]I know
[C5]She left me [G5]roses by the stairs
[F5]Surprises let me know[G5] she cares
C5 (let ring)
Say it ain't so, I will not go, turn the lights off, carry me home
Then play C5, G5, F5 2x.
Then it goes into a bridge:
One guitar plays this:
E|--------------------------|
B|--------------------------|
G|--5--------2-----4--------|
D|--x--------3-----5--------|
A|--3--------3-----5--------|
E|-----------1-----3--------|

A second guitar or keyboard(convert frets to notes) plays this:
E|---------------------------------------|
B|---------------------------------------|
G|-5-5-5-5-5-5-5-5-2-2-2-2-4-4-4-4-------|
D|--5-5-5-5-5-5-5-5-3-3-3-3-5-5-5-5------|
A|---------------------------------------|
E|---------------------------------------|

[C5]Say it ain't so, I will not [G5]go, turn the lights [F5]off, carry me home
[C5]Keep your head still I'll be your [G5]thrill, the night will go [F5]on, my little windmill
[C5]Say it ain't so, I will not [G5]go, turn the lights [F5]off, carry me home
[C5]Keep your head still I'll be your [G5]thrill, the night will go [F5]on, my little windmill[C5]

Important: The song above is NOT stored on the Chordie server. The original song is hosted at www.xguitar.com. Chordie works as a search engine and provides on-the-fly formatting. Chordie does not index songs against artists/composers will. To remove this song please click here.

Text color:
Chord color:
Chord grids: 
Font size:    
Page size: 

C5 F5 G5
variations - click chord images

Login - add to songbook

Transpose chords

Tuning

Rating click stars to rate

Layout
Accuracy

SHARE PAGE  




You need to log in to post comments