""; ?> Anthem by Blink 182 - guitar chords, guitar tabs and lyrics - chordie

Anthem

Blink 182

E|--------------------------------------------------------------------------|

B|-------------------------------------------------5-5-5-5-5----------------|

G|-4-4-4-4-4---4-4-4-4-4---4-4-4-4-4---4-4-4-4-4---4-4-4-4-4----------------|

D|-4-4-4-4-4---4-4-4-4-4---4-4-4-4-4---4-4-4-4-4---2-2-2-2-2---4-4-4-4-4----|

A|-2-2-2-2-2---2-2-2-2-2---2-2-2-2-2---2-2-2-2-2---2-2-2-2-2---4-4-4-4-4----|

E|-------------------------------------------------------------2-2-2-2-2----|

E|--------------------------------|

B|-5-5-5-5-5----------------------|

G|-4-4-4-4-4----------------------|

D|-2-2-2-2-2---4-4-4-4-4----------|

A|-2-2-2-2-2---4-4-4-4-4----------|

E|-------------2-2-2-2-2----------| 

E|---------------------------------------------------------------------------------------------|

B|---------------------------------------------------------------------------------------------|

G|-4-4-4-4-4---4-4-4-4-4---8-8-8-8-8---8-8-8-8-8---9-9-9-9-9---6-6-6-6-6---9-9-9-9-9--6-6-6-6-6|

D|-x-x-x-x-x---x-x-x-x-x---x-x-x-x-x---x-x-x-x-x---x-x-x-x-x---x-x-x-x-x---x-x-x-x-x--x-x-x-x-x|

A|-2-2-2-2-2---2-2-2-2-2---6-6-6-6-6---6-6-6-6-6---7-7-7-7-7---4-4-4-4-4---7-7-7-7-7--4-4-4-4-4|

E|---------------------------------------------------------------------------------------------|

E|------------------------------------------|

B|------------------------------------------|

G|-4-4-4-4-4---4-4-4-4-4---4-4-4-4-4--------|

D|-4-4-4-4-4---4-4-4-4-4---4-4-4-4-4---2----|

A|-2-2-2-2-2---2-2-2-2-2---2-2-2-2-2---2----|

E|-------------------------------------0----|

E|-------------------------------------------|

B|-------------------------------------------|

G|-------------------------------------------|

D|-1------4----1---------1---------1---------|

A|----2-----------2---------2--4---------2---|

E|-------------------0----------------0------|

 B5
 Home show, mom won't know
 E5/BF#5
 Run out the back door
 E5/BF#5
 He's passed out on the floor
 B5
 Third time, been caught twice
 E5/BF#5
 Forgive our neighbor Bob
 E5/BF#5
 I think he humped the dog
 G#5F#5E5
 But good things come to those who wait
 F#5
Cause she laid me
 G#5F#5E5F#5
 And mom and dad possess the key - instant slavery
 G#5F#5E5F#5
 No need explain the plan no need to even bother
 G#5F#5E5F#5
 I'll pack my bags I swear I'll run - wish my friends were 21
Play Rythm Figure 2
 B5
 White lies, blood shot eyes
 E5F#5E5F#5
 Breath of alcohol, stole it from the mall
 B5
 How's Chris marked with lipstick
 E5F#5E5F#5
 Better call their fathers, sleeping with your daughters
 G#5F#5E5
 But good things come to those who wait
 F#5
Cause she laid me
 G#5F#5E5F#5
 And mom and dad possess the key - instant slavery
 G#5F#5E5F#5
 No need explain the plan no need to even bother
 G#5F#5E5F#5
 I'll pack my bags I swear I'll run - wish my friends were 21
 B5E5B5F#5
 You don't belong, you left the kids to carry on
 B5
You planned their fall
 E5B5F#5
Too bad you're wrong, don't need a mom dad slave drive song
 B5
I time bomb
 E5
I time bomb
 G#5
I time bomb
 F#5
I time bomb
Play Riff 1
(Just Bass on this part:)
Turn low the radio,
I think I hear my dad
Yelling at the band
 G#5F#5E5
 But good things come to those who wait
 F#5
Cause she laid me
 G#5F#5E5F#5
 And mom and dad possess the key - instant slavery
 G#5F#5E5F#5
 No need explain the plan no need to even bother
 G#5F#5E5F#5
 I'll pack my bags I swear I'll run - wish my friends were 21
 B5E5B5F#5
 You don't belong, you left the kids to carry on
 B5
You planned their fall
 E5B5F#5
Too bad you're wrong, don't need a mom dad slave drive song


B5 E5 E5/B F#5 G#5
variations - click chord images
Transpose chords:
Tuning:
Cool service:
View: Size:
A  A  A
Rating:
Layout:
  • Currently 3.1/5 Stars.
  • 1
  • 2
  • 3
  • 4
  • 5
 
Accuracy:
  • Currently 3.1/5 Stars.
  • 1
  • 2
  • 3
  • 4
  • 5
 
click stars to rate
Chordie recommends:
Learn how to play guitar at JamPlay.com
Songbook:
Login to add this song to your songbook
Support the artist
Preview/buy this song
MSN Music
Why this non-profit ad?

 
login to add comments/video/corrections