""; ?> Going Away To College by Blink 182 - guitar chords, guitar tabs and lyrics - chordie

Going Away To College

Blink 182

e-1--1--1--1-------------1--1--1--1--------------------

b-3--1--3--1-------------3--1--3--1--------------------

g-3--3--3--3-------------3--3--3--3--------------------

d-3--3--3--3-------------1--1--1--1--------------------

a-1--1--1--1-------------1--1--1--1--------------------

e------------------------1--1--1--1--------------------

e-----------------------------------------------------

b-----------------------------------------------------

g--------8---8---8--------8---8-----------------------

d------9---9---9--------9---9-------------------------

a-------------------7-7----------9-9---11-------------

e--7-7------------------------------------------------


 B
 please take me by the hand
it's so cold out tonight
i'll put blankets on the bed
i won't turn out the light
 BEiiF#ii
 just don't forget to think about me
 B
 and i won't forget you
 EiiF#ii
 i'll write you once a week she said
e-----------------------------------------------------
b-----------------------------------------------------
g--------8---8---8--------8---8-----------------------
d------9---9---9--------9---9-------------------------
a-------------------7-7----------9-9---11-------------
e--7-7------------------------------------------------

 B
 why does it feel the same
to fall in love or break it off
and if young love is just a game
then i must have missed the kick off
 BEiiF#iiB
 don't depend on me to ever follow through on anything
 EiiF#ii
but i'd go through hell for you and
 D#EiiBF#
 i haven't been this scared in a long time
 D#EiiBF#
 and i'm so unprepared so here's your valentine
 D#EiiBF#
 bouquet of clumsy words, a simple melody
 D#EiiBF#
 this world's an ugly place, but you're so beautiful to me
e-----------------------------------------------------
b-----------------------------------------------------
g--------8---8---8--------8---8-----------------------
d------9---9---9--------9---9-------------------------
a-------------------7-7----------9-9---11-------------
e--7-7------------------------------------------------

VERSE:
e--------------------------------------------------------
b--------------------------------------------------------
g--------------------------------------------------------
d-------9-----9-----9-----9------9-----9------11-----11--
a----------------------------7-7---7-7----9-9----9-9-----
e---7-7---7-7---7-7---7-7--------------------------------

i'll think about the times
she kissed me after class
and she put up with my friends
i acted like an ass
i'd ditch my lecture to watch the girls play soccer
is my picture still hanging in her locker?
CHORUS:
 D#EiiBF#
 i haven't been this scared in a long time
 D#EiiBF#
 and i'm so unprepared so here's your valentine
 D#EiiBF#
 bouquet of clumsy words, a simple melody
 D#EiiBF#
 this world's an ugly place, but you're so beautiful
e-----------------------------------------------------
b---4-4-4-4---2-2-2-2---------------------------------
g---4-4-4-4---4-4-4-4---------------------------------
d---4-4-4-4---4-4-4-4---------------------------------
a-----------------------------------------------------
e-----------------------------------------------------

 D#EiiBF#
 i haven't been this scared in a long time
 D#EiiBF#
 and i'm so unprepared so here's your valentine
 D#EiiBF#
 bouquet of clumsy words, a simple melody
 D#EiiBF#
 this world's an ugly place, but you're so beautiful to me


B D# F#
variations - click chord images
Transpose chords:
Tuning:
Cool service:
View: Size:
A  A  A
Rating:
Layout:
  • Currently 3.7/5 Stars.
  • 1
  • 2
  • 3
  • 4
  • 5
 
Accuracy:
  • Currently 2.3/5 Stars.
  • 1
  • 2
  • 3
  • 4
  • 5
 
click stars to rate
Chordie recommends:
Check out JamPlay.com for online video guitar lessons
Songbook:
Login to add this song to your songbook
Support the artist
Preview/buy this song
MSN Music
Why this non-profit ad?

 
login to add comments/video/corrections