Story Of A Lonely Guy

Blink 182

e |---------------------------------------------------------|

b |---------------------------------------------------------|

g |---------2-2-2-4-4-4-4-4-4-4---------------4-4-4-2-2-2---|  x 2

d |---2-2-2-----------------------------2-2-2---------------|

a |-------------------------------2-2-2---------------------|

e |---------------------------------------------------------|


 ABC#D
 Push it out, fake a smile, advert disaster just in time,
 ABC#D
 I need a drink, cause in awhile, worthless answers from friends of mine,
 ABC#D
 It's dumb to ask, cool to ignore, girls possess me but their never mine,
 ABC#D
 I made my entrance, avoided hazards, checked my engine, I fell behind,
Bridge :
 C#DAE
 Da da . . . Da da . . . Da da . . . Da da da . . .
 C#DAE
 Da da . . . Da da . . . Da da . . . Da da da . . .
Chorus :
 AEF#D
 She makes me feel like it's raining outside . . .
 AEF#D
 And when the stars come I'm all torn up inside . . .
 AEF#D
 I'm always nervous on days like this, like the prom . . .
 AEF#D
 I get too scared to move cause I'm a fucking boy . . .
Intro : Repeat
Verse :
 ABC#D
 Remember when, I was in, the grocery store, now's my time,
 ABC#D
 Lost the words, lost the nerve, lost the girl, left the line,
 ABC#D
 I would wish, upon a star, but that star, it doesn't shine,
 ABC#D
 So read my book, with the boring ending, a short story of a lonely guy,
Bridge :
 C#DAE
 Da da . . . Da da . . . Da da . . . Da da da . . . (I fell behind)
 C#DAE
 Da da . . . Da da . . . Da da . . . Da da da . . .
Chorus : Repeat
Solo/Interlude :
e |---------------------------------------------------|
b |---------------------------------------------------|
g |------------------------------------999999999999---| x 2
d |-------7-------7-------7-------7----999999999999---|
a |---4-4---4-4-4---4-5-5---5-5-5---5--777777777777---|
e |---------------------------------------------------|
e |--------------------------------------------------------------------|
b |--------------------------------------------------------------------|
g |--------------------------------------------------------------------| x 1
d |-------7-------7-------7------7-------7-------7-------7-------7-----|
a |---4-4---4-4-4---4-5-5--5-5-5---5-7-7---7-7-7---7-7-7---7-7-7---7---|
e |--------------------------------------------------------------------|
e |-------------------------------------|
b |-------------------------------------|
g |-------------------------------------| x 1
d |-------7-------7-------7-------7-----|
a |---4-4---4-4-4---4-5-5---5-5-5---5---|
e |-------------------------------------|

(Bridge w/ Chorus Chords)
 AEF#D
 Da da . . . Da da . . . Da da . . . Da da da . . .
 AEF#D
 Da da . . . Da da . . . Da da . . . Da da da . . .
Chorus : Repeat
(Hold last "D" - then end on "A")
Enjoy it while you can . . .


A B C# D E F#
variations - click chord images
Transpose chords:
Tuning:
Cool service:
View: Size:
A  A  A
Rating:
Layout:
  • Currently 3/5 Stars.
  • 1
  • 2
  • 3
  • 4
  • 5
 
Accuracy:
  • Currently 3/5 Stars.
  • 1
  • 2
  • 3
  • 4
  • 5
 
click stars to rate
Chordie recommends:
Learn to play guitar with video-based, online guitar lessons at JamPlay.com
Songbook:
Login to add this song to your songbook
Support the artist
Preview/buy this song
MSN Music
Why this non-profit ad?

 
login to add comments/video/corrections