Chordie logo


The Rock Show  Blink 182

e-|-----|-----|-----|-----|


B-|-----|-----|-----|-----|


G-|-----|--7--|--9--|-----|


D-|--7--|--7--|--9--|--4--|


A-|--7--|--5--|--7--|--4--|


E-|--5--|-----|-----|--2--|


e-|---------------------------------------------|------|


B-|---------------------------------------------|------|


G-|---------------------------------------------|---*--|


D-|-------2----0--------------2----0-----2---2--|--7---|


A-|--0--------------4----0-------------4---4----|--7---|


E-|---------------------------------------------|--5---|

[A5]Hanging out behind the club at the weekend
[D5]Acting stupid getting [E5]drunk with my best friends
[A5]I could wait for the summer at the Warped tour
[D5]I remember, it's the [E5]first time that i saw her there
>PLAY INTRO>

[A]She's getting kicked out of school 'cause she's failing
[D]I'm kinda nervous 'cause i[E] think all her friends hate me
[A]She's the one, she'll always be there
[D]She took my hand and i[E] made it i swear

'cause i [A5]fell in love with a [F#5]girl at the [D5]rock show
[A5]She said what and i [F#5]told her that i [D5]didn't know
[A5]She's so cool better [F#5]sneak in through the [D5]window
[E5]Everything's better when [D5]she's around
[E5]Can't wait 'til her parents go [D5]out of town
[E5]I fell in love with a [D5]girl at the [C#5]rock show
>PLAY INTRO>

[A5]When we said we were gonna move to vegas
[D5]I remember the [E5]look her mother gave us
[A5]Seventeen without a purpose or direction
[D5]We don't owe anyone a [E5]fucking explanation
>PLAY CHORUS>

e-|-------------------|
B-|--2---2---2---3----|
G-|----2---2---2---2--|
D-|-------------------|
A-|-------------------|
E-|-------------------|

[F#5]And if i ever got another ch[D5]ance
I'd still ask her to [A5]dance
Because she [E5]kept me [D5]waiting
>PLAY CHORUS> >PLAY INTRO>

Important: The song above is NOT stored on the Chordie server. The original song is hosted at www.xguitar.com. Chordie works as a search engine and provides on-the-fly formatting. Chordie does not index songs against artists/composers will. To remove this song please click here.

Text color:
Chord color:
Chord grids: 
Font size:    
Page size: 

A A5 C#5 D D5 E E5 F#5
variations - click chord images

Login - add to songbook

Transpose chords

Tuning

Rating click stars to rate

Layout
Accuracy

SHARE PAGE  




You need to log in to post comments