Guitar Tabs, Chords and Lyrics


Take Me Away    Blue Oyster Cult



Take Me Away : Blue Oyster Cult

Main Riff

D-----------------------------------------------------------
A----------------7—7---5------------------------------------
E----------0-------------------5--5/7--0—7**/5~~------------
* = Triplet
~ = Slight Vibrato

Verse Riff

e----------------------------------------------------------------
b------------9---------------------------------------------------
G------------9---------------5-------------7-------------5-------
D------------9---------------5-------------7-------------5-------
A------------7---------------5-------------7-------------5-------
E-----0--0-----------3--3-----------5--5---------3--3------------


Bridge Riff

e------------------------------------------------------------
b------------------------------------------------------------
G------------------------------------------------------------
D----2--2--x--x----5--5--x--x---5--5--x--x---5—5/5--5--------
A----2--2--x--x----5--5--x--x---5--5--x--x---5—5/5--5--------
E----0--0--0--0--- 3--3--0--0---7--7--0--0---3—3/7--7-------

                                      Bend a lil’ on slide


Solo...ahahhahaha if you think I can tab that.


End of Solo Riff

e----------------------------------------------------
b----------------------------------------------------
G----------------------------------------------------
D----9p7---------------------------------------------
A----------h9—9p7------------------------7--9--------
E-----------------------h9---7--9--------------------




Important: The song above is NOT stored on the Chordie server. The original song is hosted at www.xguitar.com. Chordie works as a search engine and provides on-the-fly formatting. Chordie does not index songs against artists/composers will. To remove this song please click here.

This song is displayed as text-only. Transposing and tuning is only available for chordpro-songs.

Login - add to songbook

Rating click stars to rate

Layout
Accuracy

SHARE PAGE  




You need to log in to post comments