Coffee & TV

Blur

E ----------------------

B ----------------------

G -----5---3-7-10-12-9--

D ---5---7--------------

A -5--------------------

E ----------------------

e -----------------

B -----------------

G -4-4-4-6-6--------

e -----------------

B -12-10-9-5-------

G -----------------


 A-6425E-7536
                                                           (Verse 1)
 B
 Do you feel like a chain store?
 AE
 Practically floored
 GF
 One of many zeros
 A#C#
 Kicked around bored
 B
 Your ears are full, but you're empty
 AE
 Holding out your heart
 GF
 To people who never really
 A#A
 Care how you are   (GUITAR FILL 1)
(Chorus)
 C#m
So give me Coffee & TV
B A (Graham plays B13)
History
(GUITAR FILL 2)
 C#m
I've seen so much
 E
I'm going blind
 AB(B13
And I'm braindead virtually
 C#m
'Cos Sociability
 B(B13A
It's hard enough for me
(GUITAR FILL 2)
 C#mE
 Take me away from this big bad world
 AD
And agree to marry me
 A
So we can start over again
Verse 2:
 B
 Do you go to the country?
 AE
It isn't very far
 GF
 Those people there will hurt you
 A#C#
 'Cos of who you are
 B
 Your ears are full of the language
 AE
There's wisdom there you're sure
 GF
 'Til the words start slurring
 A#A
 And you can't find the door (GUITAR FILL 1)
(Chorus)
 C#m
So give me Coffee & TV
B A (Graham plays B13)
History
(GUITAR FILL 2)
 C#m
I've seen so much
 E
I'm going blind
 AB(B13
And I'm braindead virtually
 C#m
'Cos Sociability
 B(B13A
It's hard enough for me
(GUITAR FILL 2)
 C#mE
 Take me away from this big bad world
 AD
And agree to marry me
 A
So we can start over again
Solo:
e/----------------------------------------------------------
B/----------------------17~~-15~~---------------------------
G/-16~~-----------------------------------------------------
D/------16h18-19--14~~-----------15b17--15------------------
A/----------------------------------------------------------
E/----------------------------------------------------------
e/----------------------------------------------------------
B/----------------------------------------------------------
G/-------------9-11-9b11-11-9-------------9~~---4-4-4-6-6---
D/-5b7--7-9h11-----------------9~~9~~-12~-------------------
A/----------------------------------------------------------
E/----------------------------------------------------------

(Chorus)
 C#m
So give me Coffee & TV
B A (Graham plays B13)
History
(GUITAR FILL 2)
 C#m
I've seen so much
 E
I'm going blind
 AB(B13
And I'm braindead virtually
 C#m
'Cos Sociability
 B(B13A
It's hard enough for me
(GUITAR FILL 2)
 C#mE
 Take me away from this big bad world
 AD
And agree to marry me 
 A
So we can start over again
e/-----------------------------
B/-----------------------------
G/-----------------------------
D/-----------------------------
A/-6-7-6-7-9-7-6--6-7-6-7-6----
E/-----------------------------

 DA
 Aah, we can start over again
 DA
 Aah, we can start over again
 DA
 Aah, we can start over again
 DA
 Aah, we can start over again


A A# B C# C#m D E F G
variations - click chord images
Transpose chords:
Tuning:
Cool service:
View: Size:
A  A  A
Rating:
Layout:
  • Currently 3/5 Stars.
  • 1
  • 2
  • 3
  • 4
  • 5
 
Accuracy:
  • Currently 2.8/5 Stars.
  • 1
  • 2
  • 3
  • 4
  • 5
 
click stars to rate
Chordie recommends:
Learn how to play guitar at JamPlay.com
Songbook:
Login to add this song to your songbook
Support the artist
Preview/buy this song
MSN Music
Why this non-profit ad?

 
login to add comments/video/corrections