Guitar Tabs, Chords and Lyrics


All Along The Watchtower    Bob Dylan



Bob Dylan – All Along the Watchtower


INTRO…
E------------4-4-4---5-----5-5-5-5-5-5-5---------
B--------5-5-5-5-4---5-----5-5-5-5-5-5-5---------
G--------6-6-6-6-4---6-----6-6-6-6-6-6-6---------REPEAT x4
D---6----6-6-6-6-4---7-----7-7-7-7-7-7-7---------
A---4----4-4-4-4-4---7-----7-7-7-7-7-7-7---------
E--------------------5-----5-5-5-5-5-5-5---------

This is also repeated throughout the song but quietly in the background

After 4x intro, play…
E-----5-5-----4---4-4-------------------------
B-----5-5-----4---5-5-------------------------
G-----6-6---4-4---6-6-------------------------
D-----7-7---4-4---6-6-------------------------
A-----7-7---4---------------------------------
E-----5-5---4---------------------------------
		There must be……

E----------------------------------5-5-----4---4-4----
B----------------------------------5-5-----4---5-5----
G----------------------------------6-6---4-4---6-6----
D----------------------------------7-7---4-4---6-6----
A----------------------------------7-7---4------------
E----------------------------------5-5---4------------
            ……some way outa here


E----------------------------------5-5-----4---4-4----
B----------------------------------5-5-----4---5-5----
G----------------------------------6-6---4-4---6-6----
D----------------------------------7-7---4-4---6-6----
A----------------------------------7-7---4------------
E----------------------------------5-5---4------------
    Said the joker to the thief


E----------------------------------5-5-----4---4-4----
B----------------------------------5-5-----4---5-5----
G----------------------------------6-6---4-4---6-6----
D----------------------------------7-7---4-4---6-6----
A----------------------------------7-7---4------------
E----------------------------------5-5---4------------
      There’s too much confusion


E----------------------------------5-5-----4---4-4----
B----------------------------------5-5-----4---5-5----
G----------------------------------6-6---4-4---6-6----
D----------------------------------7-7---4-4---6-6----
A----------------------------------7-7---4------------
E----------------------------------5-5---4------------
            I can’t get no relief



Important: The song above is NOT stored on the Chordie server. The original song is hosted at www.xguitar.com. Chordie works as a search engine and provides on-the-fly formatting. Chordie does not index songs against artists'/composers' will. To remove this song please click here.

This song is displayed as text-only. Transposing and tuning is only available for chordpro-songs.

Login - add to songbook

Rating click stars to rate

Layout
Accuracy

SHARE PAGE  




You need to log in to post comments