Guitar Tabs, Chords and Lyrics


Shot Through the Heart   Bon Jovi

E|---------------------------------------------------------------------


B|---------------------------------------------------------------------


G|----------4------------2-----------0------------2-----------4--------

D|--------7---7--------5---5-------3---3--------5---5-------7---7------
A|------7------------5-----------3-------3----5-----------7------------
E|----5----------5\3---------3\1-----------1/3--------3/5---------5\3--......
E|---------------|------------|-----------|----------------------|
B|---------------|------------|-----------|----------------------|
G|---------------|------------|-----------|----------------------|
D|---7--7--------|----7--7----|-----------|--------------7--7----|
A|---7--7--------|----7--7----|-----------|--------------7--7----|
E|---5--5--------|----5--5----|-----------|----3++++++---5--5----| x3
E|-------------------------------------------------------------------------|
B|-------------------------------------------------------------------------|
G|---------------------------------------5-5--4-4--------------------------|
D|--------------3~---5~------7......--------------7-7-5-5--3~.--5~---------|
A|----X\--------3~---5~------7......-----------------------3~.--5~----3-2--|
E|----X\--------1~---3~------5......-----------------------1~.--3~---------|
    [A5]    [G5]    [F5]     [G5]                                                                            
E|---------------------|  |--------|
B|---------------------|  |--------|
G|--2~-----------------|  |--2-2---|
D|--2~---5~--3~---5..--|  |--2-2---|
A|--0~---5~--3~---5..--|  |--0-0---|
E|-------3~--1~---3..--|x2|--------|

PM....

Verso 2 : Igual al Verso 1 (The same)


pre-coro (pre-chorus):

ENTRADA DEL PRE-CORO:

E|---------------------|
B|---------------------|
G|---------------------|
D|--7-5---5-------3~---|
A|------8---7-5---3~---|
E|----------------1~---| Lo Demas es igual (the next is the same)


CORO :
IGUAL (the same) A5 , G5 , F5 , G5 , A5 , G5........

FINAL DE ESTE CORO :

       [A5]                                                                                      
E|-----------------|
B|----10\\\\-------|
G|----9-\\\\-------|
D|----7-\\\\-------|
A|-----------------|
E|-----------------|


SOLO:

* : armonico artificial (artificial harmonic)
E|--X-X-X-X-----|  |-----------||X-X-X-X----|  |----------------------------------|
B|--X-X-X-X--10-|  |-----------||X-X-X-X-10-|  |----------------------------------|
G|--X-X-X-X--9--|  |-9b~*r--7~-||X-X-X-X-9--|  |-7-9-7-9b~*----7b-7b*-7b*-7b**7**~|
D|--X-X-X-X--7--|  |-----------||X-X-X-X-7--|  |----------------------------------|
A|--X-X-X-X-----|x2|-----------||X-X-X-X----|x2|----------------------------------|
E|--------------|  |-----------||-----------|  |----------------------------------|


...la otra parte la dejo a tu criterio ya que yo la improviso de otra forma ,
realmente es dificil y rapidissimo (Richie es grande para el esto es muy facil)
...The another part I improvise in another way ,try improvise in another way if you can't,
Really It's very difficult and so fast (Richie is great , this is so easy to him)


PRE-CORO : IGUAL (the same)

PUENTE (BRIDGE):
    [A5]           [G5]           [F5]          [G5] [A5] 
E|----------------------------------------------------------|
B|----------------------------------------------------------|
G|----------------------------------------------------------|
D|---7-(7....)--5-(5....)--3-(3....)--5-(5....)--7-(7....)--|
A|---7-(7....)--5-(5....)--3-(3....)--5-(5....)--7-(7....)--|
E|---5-(5....)--3-(3....)--1-(1....)--3-(3....)--5-(5....)--|  x4

PM.... PM.... PM.... PM.... PM....


CHORO ( Chorus): los mismo 2 veces (do the same two times)

OUTRO como el PUENTE (As the Bridge):


II guitarra :
     [A5]           [G5]           [F5]         [G5] [A5] 
E|----------------------------------------------------------|
B|----------------------------------------------------------|
G|----------------------------------------------------------|
D|---7-(7....)--5-(5....)--3-(3....)--5-(5....)--7-(7....)--|
A|---7-(7....)--5-(5....)--3-(3....)--5-(5....)--7-(7....)--|
E|---5-(5....)--3-(3....)--1-(1....)--3-(3....)--5-(5....)--|  x4

PM.... PM.... PM.... PM.... PM....


I guitarra :
E|--------|  |---------------------------------------------------------------|
B|--------|  |---------------------------------------------------------------|
G|-7b--7~-|  |8b--8~-9b--9~-10b-10~-12b-12~-13b-13~-15b-15~-17b-17~-19b-19b~-|
D|--------|x8|---------------------------------------------------------------|
A|--------|  |---------------------------------------------------------------|
E|--------|  |---------------------------------------------------------------|


fIN (END)............Santiago Rodriguez - Maracay , Venezuela

Liricas (Lyrics) :

SHOT THROUGH THE HEART


Would you be content to see me crying
After all those little games you put me through
After all I've done for you you're lying
Wouldn't it be nice to tell the truth

Didn't somebody somewhere say
You're gonna take a fall
I gave you everything
Now here's the curtain call

Chorus:
Shot through the heart as I lay there alone
In the dark through the heart
It's all part of this game that we call love

Now you've come back here to say you're sorry
But I don't know who you're talking to
It could be the man I used to be, girl
But I've grown up and now I'm over you

Standing there just a live wire
With nowhere left to turn
You were gonna set the world on fire
When will you ever learn?

Chorus

Didn't somebody somewhere say
You're gonna take a fall
I gave you everything
Now here's the curtain call
And I'm shot...

Bridge:
Baby does what baby please
And baby must have what she sees
But not this time, the tables turned
Baby, you just got burned

Chorus

SANTIAGO A. RODRIGUEZ A. (SRODEMAIL@YAHOO.ES)
MARACAY , VENEZUELA

Important: The song above is NOT stored on the Chordie server. The original song is hosted at www.xguitar.com. Chordie works as a search engine and provides on-the-fly formatting. Chordie does not index songs against artists'/composers' will. To remove this song please click here.

Text color:
Chord color:
Chord grids: 
Font size:    
Page size: 

A5 F5 G5
variations - click chord images

Login - add to songbook

Transpose chords

Tuning

Rating click stars to rate

Layout
Accuracy

SHARE PAGE  




You need to log in to post comments