Thank You for Loving Me

Bon Jovi

e|----0--2-p-0-------------0--2-p-0------0-h-2-p-0----|

B|--3-------------------3-------------3-------------2-|
G|-------------2---4----------------------------------|
D|----------------------------------------------------|
A|----------------------------------------------------|
E|----------------------------------------------------|
e|-------------------------|----------------------------|
B|--10b12b10---------------|--10b12b10------------------|
G|-----------11--9h11p9--7-|------------11--9h11p9--7/9-|
D|-------------------------|----------------------------|
A|-------------------------|----------------------------|
E|-------------------------|----------------------------|

 GD
 Its hard for me to say the things I wanna say sometimes
 GD
 Theres no-one here but you and me and the broken old street light
C# B G A (fig1)
Lock the door and leave the world outside
D G A (fig2)
All I've got to give to you are these five words and I
Chorus:
 DG
 Thank you for lovin me
A (fig 1) D
For being my eyes when I couldn't see
 C#BAEA
 For parting my lips when I couldn't breathe
 DGA
 Thank you for lovin me
D G A (fig 2)
Thank you for lovin me

Fig 1:
e|---------------|
B|--2-2/3-3/5p3--|
G|---------------|
D|---------------|
A|---------------|
E|---------------|


Fig 2:
 A
e|-----------|
B|----3---2--|
G|----2---2--|
D|----2---2--|
A|-----------|
E|-----------|


Verse:
 GD
 never knew I had a dream until that dream was you
 GD
 When I look into your eyes the sky's a different blue
C# B G A (fig1)
Cross my heart, I wear no disguise
D G A (fig2)
If I tried, you'd make believe that you beleive my lies

Chorus:
 DG
 Thank you for lovin me
A (fig 1) D
For being my eyes when I couldn't see
 C#BAEA
 For parting my lips when I couldn't breathe
 DGA
 Thank you for lovin me
D G A (fig 2)
Thank you for lovin me

Bridge:
 G
 You pick me up when I fall down
 A
 You ring the bell before they count me out
 EF#G
 If I was drownin you would part the sea
 CDEA
 Anrisk your life to rescue me

Solo:
 DGAD
e|---------------------------------|-------------------------------|
B|---------------------------------|--14-15-17--20-19h20p19-17-19--|
G|---9b11-9b11-9b11b9-7h9----------|-------------------------------|
D|------------------------7h9--9-7-|-------------------------------|
A|---------------------------------|-------------------------------|
E|---------------------------------|-------------------------------|


C# B G A (fig1)
Lock the door and leave the world outside
 DGCA
 AlI've got to give to you are these five words and I

End Chorus:
 DG
 Thank you for lovin me
A (fig 1) D
For being my eyes when I couldn't see
 C#BAEA
 For parting my lips when I couldn't breathe
 DG
 Thank you for lovin me
A (fig 1) D
When I couldn't fly oh you gave me wings
 C#BAEA
 For parting my lips when I couldn't breathe
 DGA
 Thank you for lovin me
 DGA
 Thank you for lovin me
D G A (fig 2)
Thank you for lovin me

End Solo:
D G B A (fig2)
e|-------------------------|----------------------------|
B|--10b12b10---------------|--10b12b10------------------|
G|-----------11--9h11p9--7-|------------11--9h11p9--7/9-| x2
D|-------------------------|----------------------------|
A|-------------------------|----------------------------|
E|-------------------------|----------------------------|


 D
e|--------------|
B|--------------|
G|-------7-9-7--|
D|-----7--------|
A|-7/9----------|
E|--------------|



A B C C# D E F# G
variations - click chord images
Transpose chords:
Tuning:
Cool service:
View: Size:
A  A  A
Rating:
Layout:
  • Currently 3.4/5 Stars.
  • 1
  • 2
  • 3
  • 4
  • 5
 
Accuracy:
  • Currently 3.1/5 Stars.
  • 1
  • 2
  • 3
  • 4
  • 5
 
click stars to rate
Chordie recommends:
Learn to play guitar with video-based, online guitar lessons at JamPlay.com
Songbook:
Login to add this song to your songbook
Support the artist
Preview/buy this song
MSN Music
Why this non-profit ad?

 
login to add comments/video/corrections