Born to Be My Baby

Bon Jovi

E--------------------------0---------------------------------------------

B-----------3--------------0-------------------------3-------------------
G-----------2----------------------------------------2---2-2-2-2-4-6-4---
D-4---------0-----------------------------4----------0---2-2-2-2-2-4-2---
A-4--------------------2------------------4------------------------------
E-2--------------------0----------5---4---2------------------------------
E---------------------------|-------------------------------------------
B---------------------------|-----------------------------------------5-
G---------------------2-----|------------------------------7-6---6----6-
D-----4------4------2---2-4-|-----2------2------2-4b/r-2---7-6--6--6----
A-2-4----2-4----2-4---------|-2-4----2-4----2-4------------5-4----------
E---------------------------|-------------------------------------------
E--------------------0------|--------------------0------0-
B---------------3----0------|------------333333----3------
G---------------2----1------|------------222222------2----
D-3-------------0--------X2-|-333333-----000000-----------
A-3-------------------------|-333333----------------------
E-1-------------------------|-111111----------------------

 AF
you were born to be my baby
 GC
and baby i was made to be your man
 AFGA
we got something to believe in, even if we dont know where we've bin
 AFCG
only god could know the reason, but i bet he must have ad a plan
 AF
you were born to be my baby
G A(C on 2nd chorus)
and baby i was made to be your man

solo
E------------------------------------------------------------------------
B-9b 9b/r-9----------9b-9b/r-9-9b-9b-7------6-7-6--6-7-----67------------
G-----------8---6-8---------------------6-8------------8-6----86-8-6-8---
D------------------------------------------------------------------------
A------------------------------------------------------------------------
E------------------------------------------------------------------------
E------------------------------------------------------------------------------
B-23b-23b/r-23b23b23b23-22-----2223-----2223----2233------------------23b-23---
G--------------------------2123----2123-----2123------3b/r-3b/r-3b/r--------21-
D------------------------------------------------------------------------------
A------------------------------------------------------------------------------
E------------------------------------------------------------------------------


the solo is not 100% correct because its all i can remember off the top of my head right now, but its summet like that





A C F G
variations - click chord images
Transpose chords:
Tuning:
Cool service:
View: Size:
A  A  A
Rating:
Layout:
  • Currently 0/5 Stars.
  • 1
  • 2
  • 3
  • 4
  • 5
 
Accuracy:
  • Currently 0/5 Stars.
  • 1
  • 2
  • 3
  • 4
  • 5
 
click stars to rate
Chordie recommends:
Learn to play songs at Jamplay.com with video guitar lessons
Songbook:
Login to add this song to your songbook
Support the artist
Preview/buy this song
MSN Music
Why this non-profit ad?

 
login to add comments/video/corrections