Wanted Dead Or Alive

Bon Jovi

 D5C5G5F5
      x 5 7 x x x          x 3 5 x x x          3 5 x x x x          1 3 x x x x
G5(type 2) D5/A F5VIII
3 x 0 0 x x x 0 0 2 x x x 8 10 10 x x
Intro
Slowly Q=74
N.C. Dsus2/A
 4/4
  Gtr I
|---------|---------|----------------|-------------|-^0----|
|---------|---------|----------------|-------------|-^3----|
|---------|---------|----------------|-------------|-^2----|
|---------|---------|----------------|-<12>--------|-^0----|
|---------|---------|------<7>--<12>-|-------------|-^0----|
|---------|---------|----------------|-------------|-------|

N.C.
|------13---------12---------10--------8---|-----5-------3-------1-(1)---|
|------------------------------------------|-----------------------------|
|---14----14---12----12---10----10---9---9-|---5---5---4---4-4s2---------|
|-0----------0----------0----------0-------|-0-------0-----------------0-|
|------------------------------------------|-----------------------------|
|------------------------------------------|-----------------------------|
|--------13---------12---------10--------8---|
|--------------------------------------------|
|-----14----14---12----12---10----10---9---9-|
|-(0)----------0----------0----------0-------|
|--------------------------------------------|
|--------------------------------------------|
|-----5-------3-------1-(1)-----|---------------------0-----------|
|-------------------------------|-----------------------3-3-------|
|---5---5---4---4-4s2-----------|---------------------------2-----|
|-0-------0---------------------|-------0-3b3.5-0-(0)-------------|
|---------------------------0-0-|-3b3.5-----------------------0-0-|
|-------------------------------|---------------------------------|

|
|-------------------------------|---------------------------------|
|-------------------------------|---------------------------------|
|-------------------------------|---------------------------------|
|-------------------------------|---------------------------------|
|-------------------------------|---------------------------------|
|-------------------------------|---------------------------------|
|------------------------0------------|
|--------------------------3-3--------|
|------------------------------2------|
|--------0-3b3.5-0--(0)---------------|
|--3b3.5-------------------------0-0--|
|-------------------------------------|

|
| Gtr III
| \1________________/
|-------------------------------------|
|-------------------------------------|
|-<7>--------------(<7>)--------------|
|-------------------------------------|
|-------------------------------------|
|-------------------------------------|
|-------------------------0-------------|
|---------------------------3-3-3-------|
|---------------------------------2-----|
|---------0-3b3.5-0--(0)----------------|
|---3b3.5---------------------------0-0-|
|---------------------------------------|

|
| \1________________/
|---------------------------------------|
|---------------------------------------|
|-(<7>)-------------(<7>)---------------|
|---------------------------------------|
|---------------------------------------|
|---------------------------------------|

Verse
 D5DG5/ADsus2/A
|------------------------||-2--2-2-3p2-0-0h2------|
|------------------------||-3--3---3---3-3---3----|
|---------------2-(2)----||-2--2---2---2-2-----2--|
|-------3-(3)s2-0-(0)----||-0--0------------------|
|---3---3-(3)s2----------||-----------------------|
|------------------------||-----------------------|

|
| ~~~~~
|------------------------||-----------------------|
|------------------------||-----------------------|
|-(<7>)------------------||-----------------------|
|------------------------||-----------------------|
|------------------------||-----------------------|
|------------------------||-----------------------|

 Em7/CGEm7/CG
|-3-3-3-(3)-3-3-(3)-----------|-3-3-3-(3)-3-3-(3)-----------|
|-3-3-3-(3)-3-3-(3)-----------|-3-3-3-(3)-3-3-(3)-----------|
|-0-0-0-(0)-0-0-(0)-0-------0-|-0-0-0-(0)-0-0-(0)-0-------0-|
|-2-2-2-(2)-2-0-(0)-0-----0---|-2-2-2-(2)-2-0-(0)-0-----0---|
|-3-3-3-(3)-3-2-(2)---0h2-----|-3-3-3-(3)-3-2-(2)---0h2-----|
|-------------3-(3)-----------|-------------3-(3)-----------|

|
| Gtr III
|-----------------------------|-----------------------------|
|-----------------------------|-----------------------------|
|-----------------------------|-----------------------------|
|-----------------------------|-----------------------------|
|-----------------------------|-----------------------------|
|-----------------------------|-----------------------------|

 F/CD
|---1---2-------2p=0-----0-0-----------------|
|-3-1---3------------3---3-----3-------------|
|-0-2---2--------------2---------------2-----|
|-0-3---0------------------------------------|
|-2-3----------------------------------------|
|-3------------------------------------------|

|
| <
|--------------------------------------------|
|--------------------------------------------|
|------12b14==(12)-----------(12)r(12)p==10--|
|--------------------------------------------|
|--------------------------------------------|
|--------------------------------------------|

 Dsus2DDsus2/AD/AEm7/CG
|--0h2-2-2-2h3-2-0-0-0h2-2-2-|---3--3-3--3-(3)-3-------------|
|--3---3---3---3-3-3-3---3-3-|---3--3-3--3-(3)---3-3---------|
|--2---2---2---2-2-2-2---2-2-|---0--0-0--0-(0)---0---------0-|
|--0---0---------------------|---2--2-2--0-(0)-----------0---|
|----------------------------|---3--3-3--2-(2)-------0h2-----|
|----------------------------|-----------3-(3)---------------|

|
|----------------------------|-------------------------------|
|----------------------------|-------------------------------|
|----------------------------|-------------------------------|
|-12-------------------------|-(12)--------------------------|
|----------------------------|-------------------------------|
|----------------------------|-------------------------------|

 Em7/CG
|-3---3-3-3-3-(3)-3-3---------|
|-3---3-3-3-3-(3)-3-3---------|
|-0-0-0-0-0-0-(0)-0-0-------0-|
|-2---2-2-2-0-(0)-0-0-----0---|
|-3---3-3-3-2-(2)-----0h2-----|
|-----------3-(3)-------------|

|
|-----------------------------|
|-----------------------------|
|-----------------------------|
|-----------------------------|
|-----------------------------|
|-----------------------------|

Chorus
 FDCG
|---1--2-(2)-0h2-----------||-0-0-0--3-(3)-3-----------|
|---1--3-(3)-----3-3-------||-1-1-1--3-(3)-3-----------|
|-0-2--2-(2)---------2-----||-0-0-0--0-(0)-0---------0-|
|-0-3--0-(0)-----------0---||-2-2-2--0-(0)-0-0-----0---|
|------------------------0-||-3-3-3--2-(2)-----0h2-----|
|--------------------------||--------3-(3)-------------|

 FD
|-1-1-1-1-2-(2)-2h3p2---0--------|
|-1-1-1-1-3-(3)-----------3------|
|-2-2-2-2-2-(2)-------2-----2----|
|-3-3-3-3-0-(0)------------------|
|-----------------------------0--|
|--------------------------------|

 CGD
|-0-0-0--3-3-3-3-3---------|---------------2-2p0-2---------|
|-1-1-1--3-3-3-3-3---------|---------------3-------3-3-----|
|-0-0-0--0-0-0-0-0-------0-|---------------2-----------2---|
|-2-2-2--0-0-0-0-0-----0---|-------0-3b3.5-0-------------0-|
|-3-3-3--2---------0h2-----|-3b3.5-0-----------------------|
|--------3-----------------|-------------------------------|

 CG
|-0-0-0--3-(3)-3-3-3---------|
|-1-1-1--3-(3)-3-3-3---------|
|-0-0-0--0-(0)-0-0-0-------0-|
|-2-2-2--0-(0)-0-0-0-----0---|
|-3-3-3--2-(2)-------0h2-----|
|--------3-(3)---------------|

N.C.
|---------------2-(2)----|------13---------12---------10--------8---|
|---------------3-(3)----|------------------------------------------|
|-------2-------2-(2)----|---14----14---12----12---10----10---9---9-|
|-------0-3b3.5-0-(0)----|-0----------0----------0----------0-------|
|-3b3.5------------------|------------------------------------------|
|------------------------|------------------------------------------|

|
| Gtr III
|------------------------|------------------------------------------|
|------------------------|------------------------------------------|
|------------------------|------------------------------------------|
|------------------------|------------------------------------------|
|------------------------|------------------------------------------|
|------------------------|------------------------------------------|
|----------5------------3-------------1-(1)---|
|---------------------------------------------|
|--------5----5------4-------4---4s=2---------|
|--0--------------0-------------------------0-|
|---------------------------------------------|
|---------------------------------------------|

|
|---------------------------------------------|
|-13b15======13r(13)--------------------------|
|----------------------12b14r==(12)-----10----|
|---------------------------------------------|
|---------------------------------------------|
|---------------------------------------------|
|------------------13------------12---------10--------8---|
|---------------------------------------------------------|
|------------14-------14------12----12---10----10---9---9-|
|-(0)----------------------0-----------0----------0-------|
|---------------------------------------------------------|
|---------------------------------------------------------|

|
|---------------------------------------------------------|
|---------------------------------------------------------|
|-12b14r(12)p===10----------------------------------------|
|------------------12----(12)-----------------------------|
|---------------------------------------------------------|
|---------------------------------------------------------|

Verse
 DG5/ADsus2/A
|-----5-------3-------1-(1)--||-2--2-2-3p2-0-0h2-----|
|----------------------------||-3--3---3---3-3---3---|
|---5---5---4---4-4s2--------||-2--2---2---2-2-----2-|
|-0-------0------------------||-0--0-----------------|
|----------------------------||----------------------|
|----------------------------||----------------------|

|
|----------------------------||----------------------|
|----------------------------||----------------------|
|----------------------------||----------------------|
|----------------------------||----------------------|
|----------------------------||----------------------|
|----------------------------||----------------------|

 Em7/CG
|-3-3-3-(3)-3-3-(3)-----------|
|-3-3-3-(3)-3-3-(3)-----------|
|-0-0-0-(0)-0-0-(0)-0-------0-|
|-2-2-2-(2)-2-0-(0)-0-----0---|
|-3-3-3-(3)-3-2-(2)---0h2-----|
|-------------3-(3)-----------|

|
|-----------------------------|
|-----------------------------|
|-----------------------------|
|-----------------------------|
|-----------------------------|
|-----------------------------|

 Em7/CGGF/CD
|-3-3-3-(3)-3---3---(3)-------------|---1--2-2p0-----0-0-----|
|-3-3-3-(3)-3---3---(3)-------------|-3-1--3-----3---3---3---|
|-0-0-0-(0)-0---0---(0)-0---------0-|-0-2--2-------2-------2-|
|-2-2-2-(2)-2---0---(0)-0-------0---|-0-3--0-----------------|
|-3-3-3-(3)-3---2---(2)-----0h2-----|-2-3--------------------|
|---------------3---(3)-------------|-3----------------------|

|
| Gtr I
|-3-3-3-(3)---3---3--3--3-3-3-3-3-3-|------------------------|
|-3-3-3-(3)---3---3--3--3-3-3-3-3-3-|------------------------|
|-0-0-0-(0)---0---0--0--0-0-0-0-0-0-|------------------------|
|-2-2-2-(2)---2---0--0--0-0-0-0-0-0-|------------------------|
|-3-3-3-(3)---3---2--2--2-2-2-2-2-2-|------------------------|
|-----------------3--3--3-3-3-3-3-3-|------------------------|

 DsusDDsus2/AD/AEm7/CG
|-0h2-2-2-2h3-2-0-0-0h2-2-2-|-3-3-3--3-(3)-3-------------|
|-3---3---3---3-3-3-3---3-3-|-3-3-3--3-(3)---3-3---------|
|-2---2---2---2-2-2-2---2-2-|-0-0-0--0-(0)---0---------0-|
|-0---0---------------------|-2-2-2--0-(0)-----------0---|
|---------------------------|-3-3-3--2-(2)-------0h2-----|
|---------------------------|--------3-(3)---------------|

 Em7/CG
|-3---3-3-3-3-(3)-3-3---------|
|-3---3-3-3-3-(3)-3-3---------|
|-0-0-0-0-0-0-(0)-0-0-------0-|
|-2---2-2-2-0-(0)-0-0-----0---|
|-3---3-3-3-2-(2)-----0h2-----|
|-----------3-(3)-------------|

Chorus
 FDCG
|---1--2-(2)-0h2-----------||-0-0-0---3------(3)-3--------------|
|---1--3-(3)-----3-3-------||-1-1-1---3------(3)-3--------------|
|-0-2--2-(2)---------2-----||-0-0-0---0------(0)-0------------0-|
|-0-3--0-(0)-----------0---||-2-2-2---0------(0)-0-0-------0----|
|------------------------0-||-3-3-3---2------(2)-----0h2--------|
|--------------------------||---------3------(3)----------------|

|
| Gtr III
|--------------------------||--------13b15==(13)r========(13)---|
|--------------------------||-----------------------------------|
|--------------------------||-----------------------------------|
|--------------------------||-----------------------------------|
|--------------------------||-----------------------------------|
|--------------------------||-----------------------------------|

 FD
|--1-1-1-1-2--(2)--2h3p=2---------0------------|
|--1-1-1-1-3--(3)---------------------3--------|
|--2-2-2-2-2--(2)----------2-------------2-----|
|--3-3-3-3-0--(0)------------------------------|
|-------------------------------------------0--|
|----------------------------------------------|

|
|-10---------(10)------------------------------|
|-----------------13---10----------------------|
|-------------------------12b14r(12)p10--------|
|---------------------------------------12-10--|
|----------------------------------------------|
|----------------------------------------------|

 CG
|--0-0-0--3-3-3-3-3----------------|
|--1-1-1--3-3-3-3-3----------------|
|--0-0-0--0-0-0-0-0--------------0-|
|--2-2-2--0-0-0-0-0----------0-----|
|--3-3-3--2-----------0h=2---------|
|---------3------------------------|

|
|----------------------------------|
|----------------------------------|
|----------------------------------|
|-12----------------(12)---(12)\---|
|----------------------------------|
|----------------------------------|

 DCG
|---------------2--2p=0-2-----------|-0-0-0--3-(3)-3-3-3---------|
|---------------3---------3-3-------|-1-1-1--3-(3)-3-3-3---------|
|---------------2-------------2-----|-0-0-0--0-(0)-0-0-0-------0-|
|-------0-3b3.5-0----------------0--|-2-2-2--0-(0)-0-0-0-----0---|
|-3b3.5-0---------------------------|-3-3-3--2-(2)-------0h2-----|
|-----------------------------------|--------3-(3)---------------|

|
| \2
|-----------------------------------|----------------------------|
|-----------------------------------|----------------------------|
|-----------------------------------|----------------------------|
|-------0-3b3.5-0-(0)-----------(0)-|----------------------------|
|-3b3.5-----------------------------|----------------------------|
|-----------------------------------|----------------------------|

D N.C.
|---------------2-(2)----|------13---------12---------10--------8---|
|---------------3-(3)----|------------------------------------------|
|-------2-------2-(2)----|---14----14---12----12---10----10---9---9-|
|-------0-3b3.5-0-(0)----|-0----------0----------0----------0-------|
|-3b3.5------------------|------------------------------------------|
|------------------------|------------------------------------------|

|
|------------------------|------------------------------------------|
|------------------------|------------------------------------------|
|------------------------|------------------------------------------|
|-------0-3b3.5-0-(0)----|------------------------------------------|
|-3b3.5------------------|------------------------------------------|
|------------------------|------------------------------------------|
|-----5-------3-------1-(1)---|
|-----------------------------|
|---5---5---4---4-4s2---------|
|-0-------0-----------------0-|
|-----------------------------|
|-----------------------------|

|
|-----------------------------|
|-----------------------------|
|-----------------------------|
|-----------------------------|
|-----------------------------|
|-----------------------------|
|------13---------12---------10--------8---|
|------------------------------------------|
|---14----14---12----12---10----10---9---9-|
|-0----------0----------0----------0-------|
|------------------------------------------|
|------------------------------------------|

|
| Gtr II
|------------------------------------------|
|------------------------------------------|
|------------------------------------------|
|------------------------------------------|
|------------------------------------------|
|------------------------------------------|

Guitar Solo
 DG5/ADsus2/A
                                   Gtr III  
| | |
|-----5-------3--------1--(1)---||-2-------2---2-3p===2--0-0h2------|
|-------------------------------||-3-------3-----3-------3-3---3----|
|---5---5---4---4-4s=2----------||-2-------2-----2-------2-2-----2--|
|-0-------0---------------------||-0-------0------------------------|
|-------------------------------||----------------------------------|
|-------------------------------||----------------------------------|

|
|-------------------------------||----------------------------------|
|-------------------------------||----------------------------------|
|-------------------------------||----------------------------------|
|-------------------------------||----------------------------------|
|-------------------------------||-5s3-3s5-5-5-3-3h5-(5)---3-5-5-3--|
|-------------------17---(17)\--||----------------------------------|

 C5G5
  |                                  |  |
|-3------3----3-(3)----------3-------3-(3)-----------------------|
|-3------3----3-(3)----------3-------3-(3)-----------------------|
|-0------0----0-(0)----------0-------0-(0)-0----------------0----|
|-2------2----2-(2)----------2-------0-(0)-0-----------0---------|
|-3------3----3-(3)----------3-------2-(2)----0h====2------------|
|------------------------------------3-(3)-----------------------|

|
| ~~~~~~
|--------------------------------------------------------13---15-|
|--------------------------------------------------13-15---------|
|--------------------------------------------12h14---------------|
|-5b7==5---5r---[5]b7==([5])r==([5])-3-(3)-----------------------|
|----------------------------------------------------------------|
|----------------------------------------------------------------|

 C5G5
   |                     |       |
|--3-----3-3-----(3)--3--3------(3)---------------|
|--3-----3-3-----(3)--3--3------(3)---------------|
|--0-----0-0-----(0)--0--0------(0)-0-----------0-|
|--2-----2-2-----(2)--2--0------(0)-0---------0---|
|--3-----3-3-----(3)--3--2------(2)-----0h==2-----|
|------------------------3------(3)---------------|

|
| ~~~~~~~~~~~~~~~~~~~
|-15b17======15r(15)-13-15b17==(15)---(15)r-------|
|-------------------------------------------------|
|-------------------------------------------------|
|-------------------------------------------------|
|---------------------------------------------0-0-|
|-------------------------------------------------|

 G5F5D5
    |   |           |      |
|-------1-----------2------2p=0-----0-0-------|
|---3---1-----------3-----------3---3----3----|
|---0---2-----------2-------------2---------2-|
|---0---3-----------0-------------------------|
|---2---3-------------------------------------|
|---3-----------------------------------------|

|
| ~~~~
|---------------------------------------------|
|---------------------------------------------|
|-[12]----------------------------------------|
|------12-10----------------------------------|
|------12-10-12-10-10s12-(12)-----------12\---|
|------------10--8--8s10-(10)-----------------|

| | |
|-0h=======2----2-----2--2h=3--2-------0-----0----0h=2-2-2-|
|-3-------------3--------3-----3-------3-----3----3----3-3-|
|-2-------------2--------2-----2-------2-----2----2----2-2-|
|-0-------------0------------------------------------------|
|----------------------------------------------------------|
|----------------------------------------------------------|

|
| ~~~
|----------------------------------------------------------|
|----------------------------------------------------------|
|----------------------------------------------------------|
|---3b3.5-(3)---------3-[5]---[5]b7==([5])r([5])-[3]-------|
|-5-----------5---3-5--------------------------------------|
|---------------5------------------------------------------|

 C5G5
  |                    |          |
|-3---3-3--------------3---------(3)-3----------------|
|-3---3-3--------------3---------(3)---3-3------------|
|-0---0-0--------------0---------(0)---0------------0-|
|-2---2-2--------------0---------(0)-------------0----|
|-3---3-3--------------2---------(2)-------0h2--------|
|----------------------3---------(3)------------------|

|
| ~~~
|-----------------------------------------------------|
|-----------------------------------------------------|
|----------------------------------------------/10-12-|
|---3-------3-[5]b7==([5])r([5])-[3]------------------|
|-5---5-3-5-------------------------------------------|
|-----------------------------------------------------|

 C5G5
   |                           |          |
|--3-------------3------3---3--3---------(3)--------------------3-----3-------------|
|--3-------------3------3---3--3---------(3)--------------------3-----3-------------|
|--0----------0--0------0---0--0----------3---------------------0-----0-----------0-|
|--2-------------2------2---2--0---------(0)--------------------0-----0---------0---|
|--3-------------3------3---3--2---------(2)-------------------------------0h=2-----|
|------------------------------3---------(3)----------------------------------------|

|
| ~~~~~~~~ PM
|--------------------------13-------------------------------------------------------|
|------------13--------------------------13-----------------------------------------|
|-12b14-(12)----12b14-(12)----12b14-(12)-----[12]b14==([12])r([12])-[10]-(10)-------|
|-----------------------------------------------------------------------------------|
|---------------------------------------------------------------------------------0-|
|-----------------------------------------------------------------------------------|

 G5F5D5
   |    |         |   |
|-------1---------2--(2)-0h2-----------||
|-------1---------3--(3)-----3-3-------||
|--0----2---------2--(2)---------2-----||
|--0----3---------0--(0)-----------0---||
|------------------------------------0-||
|--------------------------------------||

|
|  PM----------|
|--------------------------------------||
|--------------------------------------||
|--------------------------------------||
|--------------------------------------||
|-10-8----8------12-(12)---------------||
|------10---10-8-10-(10)---------------||

Chorus
F5VIII G F D
|-0-0-0--3-(3)-3-----------|-1-1-1-1-2-(2)-2h3p2---0--------|
|-1-1-1--3-(3)-3-----------|-1-1-1-1-3-(3)-----------3------|
|-0-0-0--0-(0)-0---------0-|-2-2-2-2-2-(2)-------2-----2----|
|-2-2-2--0-(0)-0-0-----0---|-3-3-3-3-0-(0)------------------|
|-3-3-3--2-(2)-----0h2-----|-----------------------------0--|
|--------3-(3)-------------|--------------------------------|

|
|--------------------------|--------------------------------|
|--------------------------|--------------------------------|
|--------0-----------------|--------------------------------|
|-5------0-(0)-------------|---------7-(7)------------------|
|-3------------------------|-3-------5-(5)-------------0-2--|
|--------3-(3)-------------|-1------------------------------|

 CG
|-0-0-0--3--3--3-3-3---------|
|-1-1-1--3--3--3-3-3---------|
|-0-0-0--0--0--0-0-0-------0-|
|-2-2-2--0--0--0-0-0-----0---|
|-3-3-3--2-----------0h2-----|
|--------3-------------------|

|
|----------------------------|
|----------------------------|
|--------0-(0)---------------|
|-5------0-(0)---------------|
|-3------2-(2)---------------|
|--------3-(3)---------------|

 D2/4
                                    PM------------|
|---------------2-2p0-2-----------|------------------||
|---------------3-------3-3-------|---------3-3-3-3--||
|---------------2-----------2-----|-2-2-2-2-2-2-2-2--||
|-------0-3b3.5-0-------------0---|-0-0-0-0-0-0-0-0--||
|-3b3.5-0-------------------------|------------------||
|---------------------------------|------------------||

|
| <
|                 PM------------------------------|
|---------------------------------|------------------||
|---------------------------------|------------------||
|-----------------2-2-2-2-2-2-2-2-|-2-2-2-2-2-2-2-2--||
|-------0-3b3.5-0-0-0-0-0-0-0-0-0-|-0-0-0-0-0-0-0-0--||
|-3b3.5---------------------------|------------------||
|---------------------------------|------------------||

Verse
 D5C5G54/4
                                      Gtr III
| | | | | |
|-2--2--2-3p2-0-0h2-----|-3-3-3-(3)-3-3-(3)-----------|
|-3--3----3---3-3---3---|-3-3-3-(3)-3-3-(3)-----------|
|-2--2----2---2-2-----2-|-0-0-0-(0)-0-0-(0)-0-------0-|
|-0--0------------------|-2-2-2-(2)-2-0-(0)-0-----0---|
|-----------------------|-3-3-3-(3)-3-2-(2)---0h2-----|
|-----------------------|-------------3-(3)-----------|

 C5G5
  |           |  |
|-3-3-3-(3)-3-3-(3)-----------|
|-3-3-3-(3)-3-3-(3)-----------|
|-0-0-0-(0)-0-0-(0)-0-------0-|
|-2-2-2-(2)-2-0-(0)-0-----0---|
|-3-3-3-(3)-3-2-(2)---0h2-----|
|-------------3-(3)-----------|

 F5D5/AD5
  | |  | |                 |     |  |
|---1--2-2p0-----0-0-----|-0h2-2--2-2h3-2-0-0-0h2-2-2-|
|-3-1--3-----3---3---3---|-3---3----3---3-3-3-3---3-3-|
|-0-2--2-------2-------2-|-2---2----2---2-2-2-2---2-2-|
|-0-3--0-----------------|-0---0----------------------|
|-2-3--------------------|----------------------------|
|-3----------------------|----------------------------|

 C5G5
  |      |  |
|-3-3-3--3-(3)-3-------------|
|-3-3-3--3-(3)---3-3---------|
|-0-0-0--0-(0)---0---------0-|
|-2-2-2--0-(0)-----------0---|
|-3-3-3--2-(2)-------0h2-----|
|--------3-(3)---------------|

 C5G5
  |         |  |
|-3---3-3-3-3-(3)-3-3---------|
|-3---3-3-3-3-(3)-3-3---------|
|-0-0-0-0-0-0-(0)-0-0-------0-|
|-2---2-2-2-0-(0)-0-0-----0---|
|-3---3-3-3-2-(2)-----0h2-----|
|-----------3-(3)-------------|

|
| Gtr III
|-----------------------------|
|-----------------------------|
|-----------------------------|
|-----------------------------|
|-----------------------------|
|-----------------------------|

Chorus
 F5D5/AC5G5
  | |     |     |                                |      |  |
|---1-----2----(2)--0h=2---------------------||--0-0-0--3-(3)-3-----------|
|---1-----3----(3)----------3--3-------------||--1-1-1--3-(3)-3-----------|
|-0-2-----2----(2)-------------------2-------||--0-0-0--0-(0)-0---------0-|
|-0-3-----0----(0)----------------------0----||--2-2-2--0-(0)-0-0-----0---|
|------------------------------------------0-||--3-3-3--2-(2)-----0h2-----|
|--------------------------------------------||---------3-(3)-------------|

|
| ~~~~~ ~~
|-----10-10-10-10--10-13b15---10-------------||---------------------------|
|-----10-10-10-10--10------------13p10-10----||-10------------------------|
|-----------------------------------------12-||---------------------------|
|--------------------------------------------||---------------------------|
|--------------------------------------------||---------------------------|
|--------------------------------------------||---------------------------|

 F5D5/A
  |       |  |
|-1-1-1-1-2-(2)-2h3p2---0-------|
|-1-1-1-1-3-(3)-----------3-----|
|-2-2-2-2-2-(2)-------2-----2---|
|-3-3-3-3-0-(0)-----------------|
|-----------------------------0-|
|-------------------------------|

C5 G5 C5 D5F5VIIID5
| | | | | | | |
|-0-0-0--3-3-3-3-3---------|---------------2-2p0-2----------|
|-1-1-1--3-3-3-3-3---------|---------------3-------3-3------|
|-0-0-0--0-0-0-0-0-------0-|---------------2-----------2----|
|-2-2-2--0-0-0-0-0-----0---|-------0-3b3.5-0-------------0--|
|-3-3-3--2---------0h2-----|-3b3.5-0------------------------|
|--------3-----------------|--------------------------------|

C5 G5(type 2)
Gtr II
| | |
|-0-0-0---3------(3)-3-----------|
|-1-1-1---3------(3)-3-----------|
|-0-0-0---0------(0)-0---------0-|
|-2-2-2---0------(0)-0-0-----0---|
|-3-3-3---2------(2)-----0h2-----|
|---------3------(3)-------------|

|
| Gtr III
|--------15b17==(15)-------------|
|--------------------------------|
|--------------------------------|
|--------------------------------|
|--------------------------------|
|--------------------------------|

F5 D5/A C5 G5(type 2)
| | | | | |
|---1---1-1-1-2-(2)-2h3p2---0-------|-0-0-0--3-3-3-3-3---------|
|---1---1-1-1-3-(3)-----------3-----|-1-1-1--3-3-3-3-3---------|
|---2---2-2-2-2-(2)-------2-----2---|-0-0-0--0-0-0-0-0-------0-|
|---3---3-3-3-0-(0)-----------------|-2-2-2--0-0-0-0-0-----0---|
|---------------------------------0-|-3-3-3--2---------0h2-----|
|-----------------------------------|--------3-----------------|

|
|-(15)r-----------------------------|--------------------------|
|-----------------------------------|--------------------------|
|-----------------------------------|--------------------------|
|-----------------------------------|--------------------------|
|-----------------------------------|--------------------------|
|-----------------------------------|--------------------------|

 DCG
|---------------2--2p=0-2---------|-0-0-0--3-(3)-3-----------|
|---------------3---------3-3-----|-1-1-1--3-(3)-3-----------|
|---------------2-------------2---|-0-0-0--0-(0)-0---------0-|
|-------0-3b3.5-0---------------0-|-2-2-2--0-(0)-0-0-----0---|
|-3b3.5-0-------------------------|-3-3-3--2-(2)-----0h2-----|
|---------------------------------|--------3-(3)-------------|

|
|---------------------------------|--------------------------|
|---------------------------------|--------------------------|
|---------------2-(2)-------------|--------0-(0)-------------|
|---------3b3.5-0-(0)-------------|-5------0-(0)-------------|
|-3b3.5-5-------0-(0)-------------|-3------------------------|
|---------------------------------|--------3-(3)-------------|

 FD
|-1-------1-1-----1-2-(2)-2h3p2---0--------|
|-1-------1-1-----1-3-(3)-----------3------|
|-2-------2-2-----2-2-(2)-------2-----2----|
|-3-------3-3-----3-0-(0)------------------|
|---------------------------------------0--|
|------------------------------------------|

|
|------------------------------------------|
|------------------------------------------|
|------------------------------------------|
|-------0---3b3.5---2-(2)------------------|
|-3b3.5-------------0-(0)------------------|
|------------------------------------------|

 CGD
|-0-0-0--3--3--3-3-3---------|---------------2--2p=0-2---------|
|-1-1-1--3--3--3-3-3---------|---------------3---------3-3-----|
|-0-0-0--0--0--0-0-0-------0-|---------------2-------------2---|
|-2-2-2--0--0--0-0-0-----0---|-------0-3b3.5-0---------------0-|
|-3-3-3--2-----------0h2-----|-3b3.5-0-------------------------|
|--------3-------------------|---------------------------------|

|
|----------------------------|---------------------------------|
|----------------------------|---------------------------------|
|--------0-(0)---------------|---------------------------------|
|-5------0-(0)---------------|-------0-3b3.5-2-(2)-------------|
|-3--------------------------|-3b3.5---------0-(0)-------------|
|--------3-(3)---------------|---------------------------------|

 CG
|-0-----0-0---3-(3)-3------------|
|-1-----1-1---3-(3)-3------------|
|-0-----0-0---0-(0)-0---------0--|
|-2-----2-2---0-(0)-0-0-----0----|
|-3-----3-3---2-(2)-----0h2------|
|-------------3-(3)--------------|

|
|--------------------------------|
|-------------3-(3)-----3--------|
|-------------0-(0)-----0--------|
|-------0---3-0-(0)-----0--------|
|-3b3.5--------------------------|
|-------------3-(3)-3-3-3--------|

 FD
|-1-------1-1-----1-2-(2)-2h3p2---0-------|
|-1-------1-1-----1-3-(3)-----------3-----|
|-2-------2-2-----2-2-(2)-------2-----2---|
|-3-------3-3-----3-0-(0)-----------------|
|---------------------------------------0-|
|-----------------------------------------|

|
|-----------------------------------------|
|-----------------------------------------|
|-------------------2-(2)-----------------|
|-------0---3b3.5---0-(0)-----------------|
|-3b3.5-----------------------------------|
|-----------------------------------------|

 CGD
|-0-----0-0-------3--3--3-3-3---------|---------------2--2p=0-2---------|
|-1-----1-1-------3--3--3-3-3---------|---------------3---------3-3-----|
|-0-----0-0-------0--0--0-0-0-------0-|---------------2-------------2---|
|-2-----2-2-------0--0--0-0-0-----0---|-------0-3b3.5-0---------------0-|
|-3-----3-3-------2-----------0h2-----|-3b3.5-0-------------------------|
|-----------------3-------------------|---------------------------------|

|
|-------------------------------------|---------------------------------|
|-----------------3-(3)---------------|---------------------------------|
|-----------------0-(0)---------------|---------------2-(2)-------------|
|-------0---3b3.5-0-(0)---------------|-------0-3b3.5-0-(0)-------------|
|-3b3.5-------------------------------|-3b3.5---------------------------|
|-----------------3-(3)---------------|---------------------------------|

N.C.
|------13---------12---------10--------8---|-----5-------3-------1-(1)---|
|------------------------------------------|-----------------------------|
|---14----14---12----12---10----10---9---9-|---5---5---4---4-4s2---------|
|-0----------0----------0----------0-------|-0-------0-----------------0-|
|------------------------------------------|-----------------------------|
|------------------------------------------|-----------------------------|

H.=H
|--------13---------12---------10--------8---|
|--------------------------------------------|
|-----14----14---12----12---10----10---9---9-|
|-(0)----------0----------0----------0-------|
|--------------------------------------------|
|--------------------------------------------|
|-----5-------3---2----*|
|-----------------3----*|
|---5---5---4---4-2----*|
|-0-------0-------0----*|
|-----------------0----*|
|----------------------*|**************************************************************************************