Guitar Tabs, Chords and Lyrics


Something for the Pain    Bon Jovi



SOMETHING FOR THE PAIN

intro
E----------------------
B----------------------
G-4--4-6-7-------------
D-------------7-7-6----
A-------------------7--
E----------------------

E-------------------------------------------
B-------------------------------------------
G-------------------------------------------
D-------2---2-2--------------2---2-2--------
A-2-2---0---0-0---2----2-2---0---0-0---2-2--
E-0-0-3---------3-0----0-0-3---------3-0-0--

verses
E------0--0-0---0---------0----------0---------0-----0-----------
B------0--0-0---0---------0----------0---------0-----0-----------
G-2/4---------2---2/4\2-1-----1-1-----------------------------2--
D----------------------------------4-----2------------------2----
A-------------------------------------------4-----2-------0------
E----------------------------------------------------------------

bridge
E---------------------------------------------------------
B---------------------------------------------------------
G-4-4-4--4-4--4-4--4----2-2-2--2-2--2-2--2----------------
D-4-4-4--4-4--4-4--4----2-2-2--2-2--2-2--2----6/7-6/7-6/7-
A-2-2-2--2-2--2-2--2----0-0-0--0-0--0-0--0----4/5-4/5-4/5-
E---------------------------------------------------------

chorus
E------------------------------------------
B------------------------------------------
G------------------------------------------
D-------2---2-2-------6-6---2-2--4-REPEAT--
A-2-2---0---0-0---2---4-4---0-0--2---------
E-0-0-3---------3-0------------------------

SOLO
E-----------------------------7----------------------------------
B-----------------------------------10-10-10-10---------------10-
G-10b-10b-10b-10b-8-10b-10b-8----8--------------8b/r-6-8b-8-6----
D----------------------------------------------------------------
A----------------------------------------------------------------
E----------------------------------------------------------------

E--------------------------7-----7--9-10-11b------17171717--------------------17-
B-----------------------7-----7---------------17-----------17-14--17-17-15-14----
G-----7-----7------7-------------------------------------------------------------
D-9-9---9-9----9-9---9-----------------------------------------------------------
A--------------------------------------------------------------------------------


Important: The song above is NOT stored on the Chordie server. The original song is hosted at www.xguitar.com. Chordie works as a search engine and provides on-the-fly formatting. Chordie does not index songs against artists'/composers' will. To remove this song please click here.

This song is displayed as text-only. Transposing and tuning is only available for chordpro-songs.

Login - add to songbook

Rating click stars to rate

Layout
Accuracy

SHARE PAGE  




You need to log in to post comments