Chordie logo

Born Free    Bouncing Souls



"Born Free"
The Bouncing Souls

By: KevCo

Verse
e|--555555555--555555555-----------------------------------|
B|--777777777--555555555-----------------------------------|
G|--777777777--666666666-----------------------------------|
D|--777777777--777777777-----------------------------------|
A|--555555555--777777777-----------------------------------|
E|-------------555555555-----------------------------------|

Pre-Chorus ("They’ll put a chip in your arm…")
e|--333--222--5555555---------------------------|
B|--333--222--5555555---------------------------|
G|--444--333--6666666---------------------------|
D|--555--444--7777777---------------------------|
A|--555--444--7777777---------------------------|
E|--333--222—-5555555----------------------------|

Chorus ("Don’t forget that you are born free…")
e|--10-10-10-10--9--7-55555---10-10-10-10--9--9--555-9—7777-----------|
B|--12-12-12-12--11-9-77777---12-12-12-12--11-9--777-11-9999----------|
G|--12-12-12-12--11-9-77777---12-12-12-12--11-9--777-11-9999----------|
D|--12-12-12-12--11-9-77777---12-12-12-12--11-9--777-11-9999----------|
A|--10-10-10-10--9--7-55555---10-10-10-10--9--7--555-9--7777----------|
E|--------------------------------------------------------------------|

Bridge
e|-------------------------------------------------------------------------------|
B|----3-----------3-----------3---------3----------------------------------------|
G|------2-----------2-----------2---------2--------------------------------------|
D|--------------------------0----------------------------------------------------|
A|--2-----------0----------------------------------------------------------------|
E|------------------------------------3------------------------------------------|

Then
e|---7777777--555555--5555555--3333333-----------------------|
B|---7777777--555555--7777777--3333333-----------------------|
G|---7777777--666666--7777777--4444444-----------------------|
D|---9999999--777777--7777777--5555555-----------------------|
A|---9999999--777777--5555555--5555555-----------------------|
E|---7777777--555555-----------3333333-----------------------|

Ending
e|--5-5-5-5-5---------------------------------------------------------------------|
B|--7-7-7-7-7---------------------------------------------------------------------|
G|--7-7-7-7-7---------------------------------------------------------------------|
D|--7-7-7-7-7---------------------------------------------------------------------|
A|--5-5-5-5-5---------------------------------------------------------------------|


Important: The song above is NOT stored on the Chordie server. The original song is hosted at www.xguitar.com. Chordie works as a search engine and provides on-the-fly formatting. Chordie does not index songs against artists/composers will. To remove this song please click here.

This song is displayed as text-only. Transposing and tuning is only available for chordpro-songs.

Login - add to songbook

Rating click stars to rate

Layout
Accuracy

SHARE PAGE  

You need to log in to post comments