Guitar Tabs, Chords and Lyrics


East Side Mags    Bouncing Souls



bouncing souls-east side mags                            (this is my first tab)
standard tuning


  intro                   (but played in other parts of the song too)                         5x
e|---------------------------------------------------------------------------|
B|---------------------------------------------------------------------------|
G|--xx7----------------------------------------------------------------------|
D|--xx7--xx9---xx5---xx7-----------------------------------------------------|
A|--xx5--xx9---xx5---xx7-----------------------------------------------------|
E|--------xx7---xx3---xx5----------------------------------------------------|

                                                                                                           3x
e|---------------------------------------------------------------------------|   (i'm not very sure about  this part )
B|---------------------------------------------------------------------------|
G|-----7---------------------------------------------------------------------|
D|-----7----------5-5----7--------5---------------------------------------|
A|-----5---10x---5-5----7--------5----------------------------------------|
E|-----------------3-3----5--x6---3------------------------------------------|

e|---------------------------------------------------------------------------|
B|---------------------------------------------------------------------------|
G|----7-7-7-7-7-7-7-7-7--0-0-2-2-2-2-2-2-2-0--------------------------------------------------|
D|---------------------------------------------------------------------------|
A|---------------------------------------------------------------------------|
E|---------------------------------------------------------------------------|


e|---------------------------------------|
B|---------------------------------------|
G|-7--9-6-7--9-6-7--9-6-7--9-6-7---------|
D|---------------------------------------|
A|---------------------------------------|
E|---------------------------------------|

Ride! x many comin' out through the park past the dog run smell of *** burning in the sun watch the cab dent his door happy hour here let's pick up jorge lock 'em up three cold beers in a cup Inside Coney something ain't right too many people on a friday night i can't see straight in the flashing lights i got a feeling there's gonna be a fight wrap it up, pack it up saddle up full tank of liqour in our guts Drink em down we gotta a ride going through the lower east side day or night mags on the run looking for trouble looking for fun BMX we got suss when we ride don't mess with us




Important: The song above is NOT stored on the Chordie server. The original song is hosted at www.xguitar.com. Chordie works as a search engine and provides on-the-fly formatting. Chordie does not index songs against artists'/composers' will. To remove this song please click here.

This song is displayed as text-only. Transposing and tuning is only available for chordpro-songs.

Login - add to songbook

Rating click stars to rate

Layout
Accuracy

SHARE PAGE  




You need to log in to post comments