Chordie logo


Kate Is Great    Bouncing Souls



Intro:
e|---------------------------------------------------------------------------|
B|---------------------------------------------------------------------------|
G|---------------------------------------------------------------------------|
D|-xx7xx77-------------------------xx7xx77-----------------------------------|
A|-xx5xx55-xx7xx77-xx5xx55-xx7xx77-xx5xx55-xx7xx77-xx5xx55-xx5xx55-----------|
E|---------xx5xx55-xx3xx33-xx5xx55---------xx5xx55-xx3xx33-xx3xx33-----------|

Intro:
e|---------------------------------------------------------------------------|
B|---------------------------------------------------------------------------|
G|---------------------------------------------------------------------------|
D|-xx7xx77---------xx7xx77---------------------------------------------------|
A|-xx5xx55-xx7xx77-xx5xx55-55-5555-------------------------------------------|
E|---------xx5xx55---------33-3335-------------------------------------------|

Verse 1:
e|---------------------------------------------------------------------------|
B|---------------------------------------------------------------------------|
G|---------------------------------------------------------------------------|
D|-7777-5--------------------------------------------------------------------|
A|-5555-3-5555555-777777777777-----------------------------------------------|
E|--------3333333-555555555555-----------------------------------------------|


Important: The song above is NOT stored on the Chordie server. The original song is hosted at www.xguitar.com. Chordie works as a search engine and provides on-the-fly formatting. Chordie does not index songs against artists/composers will. To remove this song please click here.

This song is displayed as text-only. Transposing and tuning is only available for chordpro-songs.

Login - add to songbook

Rating click stars to rate

Layout
Accuracy

SHARE PAGE  




You need to log in to post comments