Guitar Tabs, Chords and Lyrics


1985    Bowling For Soup



Band: Bowling For Soup

Song: 1985

Tabber: Antony Morris aka Slim Miester

Standard Tuning: E A D G B e

Slide down =
Slide up = /
Palm mute = *
Let ring = ~
Pull off = p


Intro:

Guitar 1:

E---------------------------------------|
B---------------------------------------|
G--44444444-----------------------------|
D--44444444-22222222-66666666-44444444--|
A--22222222-22222222-66666666-44444444--|
e-----------00000000-44444444-22222222--|

Guitar 2:

E--------------------------------------------------------------------------|
B--------------------------------------------------------------------------|
G--------------------------------------------------------------------------|
D----------------------------------------------------------44--44--44--44--|
A--2/4-6--2/4-6--2-4-2-4-6-4-2--2/4-6--2/4-6--2-4-2-4-6-4--44--44--44--44--|
e----------------------------------------------------------22--22--22--22--|


Verse 1:

E------------------------------------------|
B------------------------------------------|
G--4-4-----------------4-4-----------------|
D--4-4--2-2--6-6--4-4--4-4--2-2--6-6--4-4--|
A--2-2--2-2--6-6--4-4--2-2--2-2--6-6--4-4--|
e-------0-0--4-4--2-2-------0-0--4-4--2-2--|

Then the same chords with palm mute:

E----------------------------------------------------------------------------------------|
B----------------------------------------------------------------------------------------|
G--44444444--------------------------------44444444--------------------------------------|
D--44444444--22222222--66666666--44444444--44444444--22222222--66666666--44--44--44--44--|
A--22222222--22222222--66666666--44444444--22222222--22222222--66666666--44--44--44--44--|
e------------00000000--44444444--22222222------------00000000--44444444--22--22--22--22--|
   ********  ********  ********  ********  ********  ********  ********


Chorus:

E----------------------------------------------------------------------------------|
B----------------------------------------------------------------------------------|
G--44444444-----------------------------44444444-----------------------------------|
D--44444444-22222222-66666666-77777777--44444444-22222222-66666666--77--77--77--77-|
A--22222222-22222222-66666666-77777777--22222222-22222222-66666666--77--77--77--77-|
e-----------00000000-44444444-55555555-----------00000000-44444444--55--55--55--55-|


Intro Riff Again:


Guitar 1:

E---------------------------------------|
B---------------------------------------|
G--44444444-----------------------------|
D--44444444-22222222-66666666-44444444--|
A--22222222-22222222-66666666-44444444--|
e-----------00000000-44444444-22222222--|

Guitar 2:

E----------------------------------------------------------|
B----------------------------------------------------------|
G----------------------------------------------------------|
D----------------------------------------------------------|
A--2/4-6--2/4-6--2-4-2-4-6-4-2--2/4-6--2/4-6--2-4-2-4-6-4--|
e----------------------------------------------------------|


Verse 2:

E------------------------------------------|
B------------------------------------------|
G--4-4-----------------4-4-----------------|
D--4-4--2-2--6-6--4-4--4-4--2-2--6-6--4-4--|
A--2-2--2-2--6-6--4-4--2-2--2-2--6-6--4-4--|
e-------0-0--4-4--2-2-------0-0--4-4--2-2--|

Then the same chords with palm mute:

E----------------------------------------------------------------------------------------|
B----------------------------------------------------------------------------------------|
G--44444444--------------------------------44444444--------------------------------------|
D--44444444--22222222--66666666--44444444--44444444--22222222--66666666--44--44--44--44--|
A--22222222--22222222--66666666--44444444--22222222--22222222--66666666--44--44--44--44--|
e------------00000000--44444444--22222222------------00000000--44444444--22--22--22--22--|
   ********  ********  ********  ********  ********  ********  ********


Chorus:

E----------------------------------------------------------------------------------|
B----------------------------------------------------------------------------------|
G--44444444-----------------------------44444444-----------------------------------|
D--44444444-22222222-66666666-77777777--44444444-22222222-66666666--77--77--77--77-|
A--22222222-22222222-66666666-77777777--22222222-22222222-66666666--77--77--77--77-|
e-----------00000000-44444444-55555555-----------00000000-44444444--55--55--55--55-|


Solo:

Guitar 1:

E---------------------------------------|
B---------------------------------------|
G--44444444-----------------------------|
D--44444444-22222222-66666666-44444444--|
A--22222222-22222222-66666666-44444444--|
e-----------00000000-44444444-22222222--|

Guitar 2:

E------------------------------------------|
B------------------------------------------|
G--8-6-4--4-6-8--8-6-4--8p6-8p6-8p6-8-4~---|
D------------------------------------------|
A------------------------------------------|
e------------------------------------------|


Chorus:

E----------------------------------------------------------------------------|
B----------------------------------------------------------------------------|
G--44444444-----------------------------44444444-----------------------------|
D--44444444-22222222-66666666-77777777--44444444-22222222-66666666--77777777-|
A--22222222-22222222-66666666-77777777--22222222-22222222-66666666--77777777-|
e-----------00000000-44444444-55555555-----------00000000-44444444--55555555-|


Continued:

E----------------------------------------------------------------------------------|
B----------------------------------------------------------------------------------|
G--44444444-----------------------------44444444-----------------------------------|
D--44444444-22222222-66666666-77777777--44444444-22222222-66666666--77--77--77--77-|
A--22222222-22222222-66666666-77777777--22222222-22222222-66666666--77--77--77--77-|
e-----------00000000-44444444-55555555-----------00000000-44444444--55--55--55--55-|





Important: The song above is NOT stored on the Chordie server. The original song is hosted at www.xguitar.com. Chordie works as a search engine and provides on-the-fly formatting. Chordie does not index songs against artists'/composers' will. To remove this song please click here.

This song is displayed as text-only. Transposing and tuning is only available for chordpro-songs.

Login - add to songbook

Rating click stars to rate

Layout
Accuracy

SHARE PAGE  




You need to log in to post comments