Guitar Tabs, Chords and Lyrics


Get Happy    Bowling For Soup



Band: Bowling For Soup
Song: Get Happy
Album: A Hangover You Don't Deserve
tabbed by: NOFXalldeway

Intro

    E--------------------
    B--------------------
    G-7-7-7-7-7-7-7-7-7--
    D-x-x-x-x-x-x-x-x-x--
    A-5-5-5-5-5-5-5-5-5--
    E--------------------


Verse

    E---------------------------------------------------------
    B---------------------------------------------------------
    G-7-7-7-7-7-7-7-7-7--5---------------7-7-7-7-7-7-7-7-7-7--
    D-x-x-x-x-x-x-x-x-x--5-hold--5-------x-x-x-x-x-x-x-x-x-x--
    A-5-5-5-5-5-5-5-5-5--3-------5-hold--5-5-5-5-5-5-5-5-5-5--
    E----------------------------3------- -------------------- x 2


Chorus


    E--------------------------------------------------------------------
    B---------------------------------------------------------------------
    G-----------------------------------7-7-7-7-7-7-7-7--4-4-4-4-4-4-4-4--
    D-5-5-5-5-5-5-5-5--7-7-7-7-7-7-7-7--7-7-7-7-7-7-7-7--4-4-4-4-4-4-4-4--
    A-5-5-5-5-5-5-5-5--7-7-7-7-7-7-7-7--5-5-5-5-5-5-5-5--2-2-2-2-2-2-2-2--
    E-3-3-3-3-3-3-3-3--5-5-5-5-5-5-5-5------------------------------------



    E----------------------------------------------------------------------
    B----------------------------------------------------------------------
    G-----------------------------------7-7-7-7-7-7-7-7-7-7-7-7-7-7-7-7-7--
    D-5-5-5-5-5-5-5-5--7-7-7-7-7-7-7-7--x-x-x-x-x-x-x-x-x-x-x-x-x-x-x-x-x--
    A-5-5-5-5-5-5-5-5--7-7-7-7-7-7-7-7--5-5-5-5-5-5-5-5-5-5-5-5-5-5-5-5-5--
    E-3-3-3-3-3-3-3-3--5-5-5-5-5-5-5-5-------------------------------------


Verse

    E---------------------------------------------------------
    B---------------------------------------------------------
    G-7-7-7-7-7-7-7-7-7--5---------------7-7-7-7-7-7-7-7-7-7--
    D-x-x-x-x-x-x-x-x-x--5-hold--5-------x-x-x-x-x-x-x-x-x-x--
    A-5-5-5-5-5-5-5-5-5--3-------5-hold--5-5-5-5-5-5-5-5-5-5--
    E----------------------------3------- -------------------- x 2


Chorus


    E--------------------------------------------------------------------
    B---------------------------------------------------------------------
    G-----------------------------------7-7-7-7-7-7-7-7--4-4-4-4-4-4-4-4--
    D-5-5-5-5-5-5-5-5--7-7-7-7-7-7-7-7--7-7-7-7-7-7-7-7--4-4-4-4-4-4-4-4--
    A-5-5-5-5-5-5-5-5--7-7-7-7-7-7-7-7--5-5-5-5-5-5-5-5--2-2-2-2-2-2-2-2--
    E-3-3-3-3-3-3-3-3--5-5-5-5-5-5-5-5------------------------------------



    E----------------------------------------------------------------------------------------------------------
    B---------------------------------------------------------------------------------------------------------
    G-----------------------------------7-7-7-7-7-7-7-7--4-4-4-4-4-4-4-4---------------------------------------
    D-5-5-5-5-5-5-5-5--7-7-7-7-7-7-7-7--7-7-7-7-7-7-7-7--4-4-4-4-4-4-4-4-5-5-5-5-5-5-5-5-5-5--7-7-7-7-7-7-7-7--
    A-5-5-5-5-5-5-5-5--7-7-7-7-7-7-7-7--5-5-5-5-5-5-5-5--2-2-2-2-2-2-2-2-5-5-5-5-5-5-5-5-5-5--7-7-7-7-7-7-7-7--
    E-3-3-3-3-3-3-3-3--5-5-5-5-5-5-5-5-----------------------------------3-3-3-3-3-3-3-3-3-3--5-5-5-5-5-5-5-5--


Interlude


    E---------------------------------------------------------------------------
    B---------------------------------------------------------------------------
    G-7-7-7-7-7-7-7-7--5-5-5-5-5-5-5-5------------------------------------------
    D-7-7-7-7-7-7-7-7--5-5-5-5-5-5-5-5--    --5-5-5-5-5-5-5-5--7-7-7-7-7-7-7-7--
    A-5-5-5-5-5-5-5-5--3-3-3-3-3-3-3-3-- x3 --5-5-5-5-5-5-5-5--7-7-7-7-7-7-7-7--
    E-----------------------------------    --3-3-3-3-3-3-3-3--5-5-5-5-5-5-5-5--


Chorus


    E--------------------------------------------------------------------
    B---------------------------------------------------------------------
    G-----------------------------------7-7-7-7-7-7-7-7--4-4-4-4-4-4-4-4--
    D-5-5-5-5-5-5-5-5--7-7-7-7-7-7-7-7--7-7-7-7-7-7-7-7--4-4-4-4-4-4-4-4--
    A-5-5-5-5-5-5-5-5--7-7-7-7-7-7-7-7--5-5-5-5-5-5-5-5--2-2-2-2-2-2-2-2--
    E-3-3-3-3-3-3-3-3--5-5-5-5-5-5-5-5------------------------------------



    E----------------------------------------------------------------------------------------------------------
    B---------------------------------------------------------------------------------------------------------
    G-----------------------------------7-7-7-7-7-7-7-7--4-4-4-4-4-4-4-4---------------------------------------
    D-5-5-5-5-5-5-5-5--7-7-7-7-7-7-7-7--7-7-7-7-7-7-7-7--4-4-4-4-4-4-4-4-5-5-5-5-5-5-5-5-5-5--7-7-7-7-7-7-7-7--
    A-5-5-5-5-5-5-5-5--7-7-7-7-7-7-7-7--5-5-5-5-5-5-5-5--2-2-2-2-2-2-2-2-5-5-5-5-5-5-5-5-5-5--7-7-7-7-7-7-7-7--
    E-3-3-3-3-3-3-3-3--5-5-5-5-5-5-5-5-----------------------------------3-3-3-3-3-3-3-3-3-3--5-5-5-5-5-5-5-5--


then play


    E-----------------------------------
    B-----------------------------------
    G-7-7-7-7-7-7-7-7-------------------
    D-7-7-7-7-7-7-7-7--5-5-5-5-5-5-5-5--
    A-5-5-5-5-5-5-5-5--5-5-5-5-5-5-5-5--
    E------------------3-3-3-3-3-3-3-3-- x 4


Intro/outro

    E--------------------
    B--------------------
    G-7-7-7-7-7-7-7-7-7--
    D-x-x-x-x-x-x-x-x-x--
    A-5-5-5-5-5-5-5-5-5--


Important: The song above is NOT stored on the Chordie server. The original song is hosted at www.xguitar.com. Chordie works as a search engine and provides on-the-fly formatting. Chordie does not index songs against artists'/composers' will. To remove this song please click here.

This song is displayed as text-only. Transposing and tuning is only available for chordpro-songs.

Login - add to songbook

Rating click stars to rate

Layout
Accuracy

SHARE PAGE  




You need to log in to post comments