Guitar Tabs, Chords and Lyrics


Next Ex-Girlfriend    Bowling For Soup



Tuning: Drop D (D A D G B E)

this is the best i cud come up wit, i couldnt work out the bridge tho, so ill update it as soon as i do

INTRO guitar 1
E|----------------------------------------------------------------||
B|-3-2-3--3-2-3--3-2-3-5-3-2-3------------------------------------||
G|----------------------------------------------------------------||
D|----------------------------------------------------------------||
A|----------------------------------------------------------------||
E|----------------------------------------------------------------||

guitar 2

first time only play each chord once
E|----------------------------------------------------------------||
B|----------------------------------------------------------------||
G|-7-7-7-7-7-4-4-4-4-4-2-2-2-2-2---------------------------||
D|-7-7-7-7-7-4-4-4-4-4-2-2-2-2-2-5-5-5-5-5----------------------||
A|-5-5-5-5-5-2-2-2-2-2-0-0-0-0-0-5-5-5-5-5-------------------------||
D|-------------------------------5-5-5-5-5------------------------||


E|----------------------------------------------------------------||
B|----------------------------------------------------------------||
G|----------------------------------------------------------------||
D|-7-7-7-7-7-4-4-4-4-4-2-2-2-2-2-7-7-7-7-7------------------------||
A|-7-7-7-7-7-4-4-4-4-4-2-2-2-2-2-7-7-7-7-7------------------------||
D|-7-7-7-7-7-4-4-4-4-4-2-2-2-2-2-7-7-7-7-7-----------------------||

verse
E|----------------------------------------------------------------||
B|----------------------------------------------------------------||
G|-7-7-7-7-7-7----------------------------------------------------||
D|-7-7-7-7-7-7-7-7-7-7-7-7-5-5-5-5-5-5-9-9-9-9-7-7-7-7------------||
A|-5-5-5-5-5-5-7-7-7-7-7-7-5-5-5-5-5-5-9-9-9-9-7-7-7-7------------||
D|-------------7-7-7-7-7-7-5-5-5-5-5-5-9-9-9-9-7-7-7-7------------||
PM ***************************************************

PRE CHORUS

E|----------------------------------------------------------------||
B|----------------------------------------------------------------||
G|----------------------------------------------------------------||
D|-5-5-5-5-5-7-7-7-7-7-9-9-9-9-9-5-5-5-5-5-5-5-5-5-5------||
A|-5-5-5-5-5-7-7-7-7-7-9-9-9-9-9-5-5-5-5-5-5-5-5-5-5------||
D|-5-5-5-5-5-7-7-7-7-7-9-9-9-9-9-5-5-5-5-5-5-5-5-5-5--------------||
PM . .   .   . .   .   . .   .   . .   .   . .   .

E|----------------------------------------------------------------||
B|----------------------------------------------------------------||
G|-----------3-3-3-3-3-5-5-5-5-5-5------------------------------||
D|-7-7-7-7-7-3-3-3-3-3-5-5-5-5-5-5------------------------------||
A|-7-7-7-7-7-1-1-1-1-1-3-3-3-3-3-3------------------------------||
D|-7-7-7-7-7-----------------------------------------------||
PM . .   .

CHORUS

E|----------------------------------------------------------------||
B|----------------------------------------------------------------||
G|-7---7-7-7-7-7-7-7-7--------------------------------------------||
D|-7---7-7-7-7-7-7-7-7--------5--------5--------5--------5--------||
A|-5---5-5-5-5-5-5-5-5--------5--------5--------5--------5--------||
D|----------------------------5-(5)(5)-5-(5)(5)-5-(5)(5)-5-(5)(5)-||
       (quietly)  (brackets mean harmonics)

E|----------------------------------------------------------------||
B|----------------------------------------------------------------||
G|-------------------------------------7-7-7-7-7------------------||
D|-7--------7--------7--------7--------7-7-7-7-7-9-9-9-9-9---||
A|-7--------7--------7--------7--------5-5-5-5-5-9-9-9-9-9--||
E|-7-(7)(7)-7-(7)(7)-7-(7)(7)-7-(7)(7)-----------9-9-9-9-9-----||

second time play after the first bit play:

E|----------------------------------------------------------------||
B|----------------------------------------------------------------||
G|-3-3-3-3-5-5-5-5------------------------------------------------||
D|-3-3-3-3-5-5-5-5-------------------------------------------------||
A|-1-1-1-1-3-3-3-3------------------------------------------------||
D|----------------------------------------------------------------||

BRIDGE

E|----------------------------------------------------------------||
B|----------------------------------------------------------------||
G|----------------------------------------------------------------||
D|-5-5-5-5-7-7-7-0-----------------------------------------------||
A|-5-5-5-5-7-7-7-0-----------------------------------------------||
D|-5-5-5-5-7-7-7-0-4-4-4-5-4-2-0----------------------------------||
PM . . . . . . .

OUTRO  guitar 1

E|----------------------------------------------------------------||
B|-3-2-3-3-2-3-3-2-3-3-2-3-3-2-3----------------------------------||
G|----------------------------------------------------------------||
D|----------------------------------------------------------------||
A|----------------------------------------------------------------||
D|----------------------------------------------------------------||

guitar2
E|----------------------------------------------------------------||
B|----------------------------------------------------------------||
G|----------------------------------------------------------------||
D|-5-----5-----5-----5-----5-------------------------------------||
A|-5-----5-----5-----5-----5-------------------------------------||
D|-5-----5-----5-----5-----5-------------------------------------||


Important: The song above is NOT stored on the Chordie server. The original song is hosted at www.xguitar.com. Chordie works as a search engine and provides on-the-fly formatting. Chordie does not index songs against artists'/composers' will. To remove this song please click here.

This song is displayed as text-only. Transposing and tuning is only available for chordpro-songs.

Login - add to songbook

Rating click stars to rate

Layout
Accuracy

SHARE PAGE  




You need to log in to post comments