Chordie logo

Sad Sad Situation      Bowling For Soup



VERSE
 -----------------------------------------------
 -----------------------------------------------
 ------------------------------------------------
 ------------------------------------------------
 -7-777777777777777-555555-7777777777-7-77777777777777--
 -5-555555555555555-333333-5555555555-5-55555555555555---
  PM...............                     ..............

 -------------------------------------------------
 -------------------------------------------------
 -------------------------------------------------
 -7777777------------------------------------------
 -5555555-777777777-----------------------------------------
 ---------555555555----------------------------------------

 PRE-CHORUS (but while it looks pretty good..)

 ----------------------------------------------------
 ----------------------------------------------------
 ----------------------------------------------------
 -7777777-----------77777777----------999999999--------------
 -5555555-777777777-55555555-77777777-777777777-------------
 ---------555555555----------55555555-----------------------

 CHORUS (turn me off..)

 -------------------------------------------------------
 --------------------------------------------------------
 --------------------------------------------------------
 -----------7-7-7-7-7-----------7-7-7-7-7--------------------
 -7-7-7-7-7-5-5-5-5-5-5-5-5-5-5-5-5-5-5-5--x2------------------
 -5-5-5-5-5-----------3-3-3-3-3-----------------------------

 Bridge

 ---------------------------------------------------------
 ----------------------------------------------------------
 ----------------------------------------------------------
 -----------7-7----------------2---4---/-9--/-2--/-7---------
 -777777777-5-5-7-777777-x-7-x-2-x-4---/-9--/-2--/-7-------
 -555555555-----5-555555-x-5-x-0-x-2---/-7--/-0--/-5----------
PM.........       ......

 -----------------------------------------------------------
 --------------------------------------------------------------
 --------------------------------7-7-7-7----------------------
 ---------444444--------444444---7-7-7-7-------------------------
 --444444-222222-444444-222222---5-5-5-5--------------------------
 --222222--------222222------------------------------------------
 PM...... ...... ...... ......



Important: The song above is NOT stored on the Chordie server. The original song is hosted at www.xguitar.com. Chordie works as a search engine and provides on-the-fly formatting. Chordie does not index songs against artists/composers will. To remove this song please click here.

This song is displayed as text-only. Transposing and tuning is only available for chordpro-songs.

Rating click stars to rate

Layout
Accuracy

SHARE PAGE  

You need to log in to post comments