Guitar Tabs, Chords and Lyrics


Shut-Up and Smile    Bowling For Soup



intro & verse
E|----------------------------------------------------------------||
B|----------------------------------------------------------------||
G|-7777777/-------------------------------------------------------||
D|-7777777/---4444444/---999999/---2222/4-0-----------------------||
A|-5555555/---4444444/---999999/---2222/4-0-----------------------||
D|------------4444444/---999999/---2222/4-0-----------------------||

at the end of verse play:
E|----------------||
B|----------------||
G|----------------||
D|-5555-7/--------||
A|-5555-7/--------||
D|-5555-7/--------||

Chorus
E|----------------------------------------------------------------||
B|----------------------------------------------------------------||
G|--7777777777777777-4444444444444444-----------------------------||
D|--7777777777777777-4444444444444444---x2--------------------------||
A|--5555555555555555-2222222222222222-----------------------------||
D|----------------------------------------------------------------||
sail around the world....

Continued

E|----------------------------------------------------------------||
B|----------------------------------------------------------------||
G|------------------777777777777777-------------------------------||
D|-7777777777777777-777777777777777-x2----------------------------||
A|-7777777777777777-555555555555555-------------------------------||
D|-7777777777777777-----------------------------------------------||
throw your arms around someone...

E|--------------------------------||
B|--------------------------------||
G|-7777-----1212------------------||
D|-7777-----1212------------------||
A|-5555-----1010------------------||
D|--------------------------------||
but all we need is some ice cream...


bridge, i think these chords are in the
background, they go with it anyway.

E|----------------------------------------------------------------||
B|----------------------------------------------------------------||
G|--7-----------4------------------------------------------------||
D|--7-----------4-----------5---------7---------------------------||
A|--5-----------2-----------5---------7--------------------------||
D|--------------------------5---------7-----------------------||
all we need is love and beer...

bridge p2
E|----------------------------------------------------------------||
B|----------------------------------------------------------------||
G|-77777777--44444444---------------------------------------------||
D|-77777777--44444444--55555555--77777777---------------------------||
A|-55555555--22222222--55555555--77777777------------------------||
D|---------------------55555555--77777777-------------------------||
can we all just...

there u go, those r all the guitar parts


Important: The song above is NOT stored on the Chordie server. The original song is hosted at www.xguitar.com. Chordie works as a search engine and provides on-the-fly formatting. Chordie does not index songs against artists'/composers' will. To remove this song please click here.

This song is displayed as text-only. Transposing and tuning is only available for chordpro-songs.

Login - add to songbook

Rating click stars to rate

Layout
Accuracy

SHARE PAGE  




You need to log in to post comments