Guitar Tabs, Chords and Lyrics


Smoothie King    Bowling For Soup



guitar1
E|----------------------------------------------------------------||
B|----------------------------------------------------------------||
G|-7-7-7-7------6-6-6-6-7-7--7-7-7-7-----12-11-9-7-----------------||
D|---------7-7-----------------------7-7---------------------------||
A|----------------------------------------------------------------||
E|----------------------------------------------------------------||

guitar2
E|----------------------------------------------------------------||
B|----------------------------------------------------------------||
G|-77-------------------------------------------------------------||
D|-77--------77-----------99------------55------------------------||
A|-55--------77-----------99------------55------------------------||
E|-----------55-----------77------------33-----------------------||

verse
E|----------------------------------------------------------------||
B|----------------------------------------------------------------||
G|--777777777777777-------------7777777777777---7-------------------||
D|--777777777777777-55555555555-7777777777777--7------------------||
A|--555555555555555-55555555555-5555555555555---------------------||
E|------------------33333333333-----------------------------------||
PM  ............... ........... .............


E|----------------------------------------------------------------||
B|----------------------------------------------------------------||
G|-7777777777777777--------------------------------------------||
D|-7777777777777777-777777777-55555555--------------------------||
A|-5555555555555555-777777777-55555555-------------------------||
E|------------------555555555-33333333-------------------------||
PM ................ ......... ........

PRE CHORUS
E|----------------------------------------------------------------||
B|----------------------------------------------------------------||
G|----------55555555----------7777777-----------------------------||
D|--3333333-55555555-33333333-7777777------------------------------||
A|--3333333-33333333-33333333-5555555---------------------------||
E|--1111111----------11111111-------------------------------------||

CHORUS
E|----------------------------------------------------------------||
B|----------------------------------------------------------------||
G|-5555555--------------------55555-------------------5555----------|
D|-5555555-5555555-3333333-X2-55555-55555-77777-33333-5555-5555-3333-||
A|-3333333-5555555-3333333----33333-55555-77777-33333-3333-5555-3333-|
E|---------3333333-1111111----------33333-55555-11111------3333-1111-||
LOVE SONGS SUCK.....

INTRO, (PLAYED LOWER)

E|----------------------------------------------------------------||
B|----------------------------------------------------------------||
G|-5555---4444-55-5555----10-9-7-5---------------------------------||
D|-----55--------------55---------------------------------------||
A|----------------------------------------------------------------||
E|----------------------------------------------------------------||
CHORDS ARE JUST PLAYED TWO FRETS LOWER
VERSE
(The same with this cool little fill)

E|-15-17BRBR------||
B|----------------||
G|----------------||
D|----------------||
A|----------------||
E|----------------||

chorus.
BRIDGE

E|----------------------------------------------------------------||
B|----------------------------------------------------------------||
G|-55555---------------------------------------------------------||
D|-55555-55555-77777-33333---play that--------------------------||
A|-33333-55555-77777-33333---a load of times --------------------||
E|-------33333-55555-11111---then again without pm------------------||
pm .. .  .. .  .. .  .. .

last prechorus (everythin played 2 frets higher)
E|----------------------------------------------------------------||
B|----------------------------------------------------------------||
G|--------77777-------99999--------------------------------------||
D|--55555-77777-55555-99999--------------------------------------||
A|--55555-55555-55555-77777--------------------------------------||
E|--33333-------33333---------------------------------------------||

last chorus(everythin played higher)


E|----------------------------------------------------------------||
B|----------------------------------------------------------------||
G|-77777----------------7777----------------7777------------------||
D|-77777-77777-55555-x2-7777-7777-9999-5555-7777-7777-5555---------||
A|-55555-77777-55555----5555-7777-9999-5555-5555-7777-5555---------||


Important: The song above is NOT stored on the Chordie server. The original song is hosted at www.xguitar.com. Chordie works as a search engine and provides on-the-fly formatting. Chordie does not index songs against artists'/composers' will. To remove this song please click here.

This song is displayed as text-only. Transposing and tuning is only available for chordpro-songs.

Login - add to songbook

Rating click stars to rate

Layout
Accuracy

SHARE PAGE  




You need to log in to post comments