Guitar Tabs, Chords and Lyrics


Two-Seater    Bowling For Soup



Bowling for soup.
two seater
a hang over you dont deserve.

verse 1

    E---------------------------------------------
    B---------------------------------------------
    G-5-5-5-5-5--5-5-5-5-5--2-2-2-2-2-------------
    D-5-5-5-5-5--5-5-5-5-5--2-2-2-2-2--3-3-3-3-3--
    A-3-3-3-3-3--2-2-2-2-2--0-0-0-0-0--3-3-3-3-3--
    E----------------------------------1-1-1-1-1-- x4


Bridge

    E---------------------------------------------------------------------------
    B---------------------------------------------------------------------------
    G--------------------5-5-5-5-5-5-5-5----------------------------------------
    D-5-5-5-5-5-5-5-5-5--5-5-5-5-5-5-5-5--5-5-5-5-5-5-5-5-5--3-3-3-3-3-3-3--5-5-
    A-5-5-5-5-5-5-5-5-5--3-3-3-3-3-3-3-3--5-5-5-5-5-5-5-5-5--3-3-3-3-3-3-3--5-5-
    E-3-3-3-3-3-3-3-3-3-------------------3-3-3-3-3-3-3-3-3--1-1-1-1-1-1-1--3-3-


Chorus


    E-----------------------------------------------------     ------
    B-----------------------------------------------------     ------
    G-5-5-5-5-5-5-----------------------------------------     ------
    D-5-5-5-5-5-5--5-5-5-5-5-5--7-7-7-7-7-7--3-3-3-3-3-3--     -5-5--
    A-3-3-3-3-3-3--5-5-5-5-5-5--7-7-7-7-7-7--3-3-3-3-3-3--     -5-5--
    E--------------3-3-3-3-3-3--5-5-5-5-5-5--1-1-1-1-1-1-- x 2 -3-3--


Chorus 2

    guitar 2
    E-----------------------------------------------------------------------------
    B-----------------------------------------------------------------------------
    G-5-5-5-5-5-5-5-5-5-----------------------------------------------------------
    D-5-5-5-5-5-5-5-5-5--5-5-5-5-5-5-5-5-5--7-7-7-7-7-7-7-7-7--3-3-3-3-3-3-3-3-3--
    A-3-3-3-3-3-3-3-3-3--5-5-5-5-5-5-5-5-5--7-7-7-7-7-7-7-7-7--3-3-3-3-3-3-3-3-3--
    E--------------------3-3-3-3-3-3-3-3-3--5-5-5-5-5-5-5-5-5--1-1-1-1-1-1-1-1-1-- x 2


 On the second time the 2nd chorus is played, guitar 1 plays:


    E--------------------------------------------------
    B--------------------------------------------------
    G-5-5-5-5-5-5--7-7-7-7-7-7--9-9-9-9-9-9--7--5-5-5-- (dont play the x)
    D-x-x-x-x-x-x--x-x-x-x-x-x--x-x-x-x-x-x--x--x-x-x--
    A-3-3-3-3-3-3--5-5-5-5-5-5--7-7-7-7-7-7--5--3-3-3--
    E--------------------------------------------------


verse 2

n.p..... ( no playin)

    E---------------------
    B---------------------
    G-5-5--5-5--2-2-------
    D-5-5--5-5--2-2--3-3--
    A-3-3--2-2--0-0--3-3--
    E----------------1-1-- x 2


Bridge


    E---------------------------------------------------------------------------
    B---------------------------------------------------------------------------
    G--------------------5-5-5-5-5-5-5-5----------------------------------------
    D-5-5-5-5-5-5-5-5-5--5-5-5-5-5-5-5-5--5-5-5-5-5-5-5-5-5--3-3-3-3-3-3-3--5-5-
    A-5-5-5-5-5-5-5-5-5--3-3-3-3-3-3-3-3--5-5-5-5-5-5-5-5-5--3-3-3-3-3-3-3--5-5-
    E-3-3-3-3-3-3-3-3-3-------------------3-3-3-3-3-3-3-3-3--1-1-1-1-1-1-1--3-3-

Chorus


    E-----------------------------------------------------
    B-----------------------------------------------------
    G-5-5-5-5-5-5-----------------------------------------
    D-5-5-5-5-5-5--5-5-5-5-5-5--7-7-7-7-7-7--3-3-3-3-3-3--
    A-3-3-3-3-3-3--5-5-5-5-5-5--7-7-7-7-7-7--3-3-3-3-3-3--
    E--------------3-3-3-3-3-3--5-5-5-5-5-5--1-1-1-1-1-1--


Interlude


    E-------------
    B-------------
    G-5--5--2-----
    D-5--5--2-----
    A-3--2--0--3--
    E----------1-- x 3


Interlude part 2


    E----------------
    B----------------
    G----------------
    D-5--7--5--3--5--
    A-5--7--5--3--5--
    E-3--5--3--1--3--

Chorus

    E-----------------------------------------------------
    B-----------------------------------------------------
    G-5-5-5-5-5-5-----------------------------------------
    D-5-5-5-5-5-5--5-5-5-5-5-5--7-7-7-7-7-7--3-3-3-3-3-3--
    A-3-3-3-3-3-3--5-5-5-5-5-5--7-7-7-7-7-7--3-3-3-3-3-3--
    E--------------3-3-3-3-3-3--5-5-5-5-5-5--1-1-1-1-1-1--


Chorus 2

    E-----------------------------------------------------------------------------
    B-----------------------------------------------------------------------------
    G-5-5-5-5-5-5-5-5-5-----------------------------------------------------------
    D-5-5-5-5-5-5-5-5-5--5-5-5-5-5-5-5-5-5--7-7-7-7-7-7-7-7-7--3-3-3-3-3-3-3-3-3--
    A-3-3-3-3-3-3-3-3-3--5-5-5-5-5-5-5-5-5--7-7-7-7-7-7-7-7-7--3-3-3-3-3-3-3-3-3--
    E--------------------3-3-3-3-3-3-3-3-3--5-5-5-5-5-5-5-5-5--1-1-1-1-1-1-1-1-1--


Emd. great song by bowling for soup.



Important: The song above is NOT stored on the Chordie server. The original song is hosted at www.xguitar.com. Chordie works as a search engine and provides on-the-fly formatting. Chordie does not index songs against artists'/composers' will. To remove this song please click here.

This song is displayed as text-only. Transposing and tuning is only available for chordpro-songs.

Login - add to songbook

Rating click stars to rate

Layout
Accuracy

SHARE PAGE  




You need to log in to post comments