Guitar Tabs, Chords and Lyrics


Cold Shower Tuesdays    Bowling For Soup



* = Play 8 times
pm= Palm muted
 = Accent on this note/chord


Standard tuning (E A D G B e)



-------
|Intro|
-------
Guitar 2                   2x Guitar 1 (2nd time only)
e|--------------------------||----------------------------------||
B|--------------------------||----------------------------------||
G|-7-----7-----7-----------#||---454------454------454----------||
D|-7--5--7--5--7--5--2--7--#||-57---75--57---75--57----7-5---7--||
A|-5--5--5--5--5--5--2--7---||----------------------------------||
E|-*--3--*--3--*--3--0--5---||----------------------------------||
      *     *     *  *  *

-------
|Verse|
-------
                          2x
e|------------------------||
B|------------------------||
G|--7--7--7---------77---#||
D|--7--7--7--555555-77-7-#||
A|--5--5--5--555555-55-7--||
E|--*--*--*--333333----5--||
   pm.......           *

------------
|Pre-chorus|
------------

e|--------------||
B|--------------||
G|--------------||
D|--5--7--4--2--||
A|--5--7--4--2--||
E|--3--5--2--0--||
    *  *  *

--------
|Chorus|
--------

e|--------------|--------------||
B|--------------|--------------||
G|--7-----------|--7-----------||
D|--7--9--5--7--|--7--9--5--7--||
A|--5--9--5--7--|--5--9--5--7--||
E|--*--7--3--5--|--*--7--3--5--||
       *  *  *        *  *  *

-------
|Intro|
-------
Guitar 2                      Guitar 1
e|--------------------------||----------------------------------|
B|--------------------------||----------------------------------|
G|-7-----7-----7------------||---454------454------454----------|
D|-7--5--7--5--7--5--2--7---||-57---75--57---75--57----7-5---7--|
A|-5--5--5--5--5--5--2--7---||----------------------------------|
E|-*--3--*--3--*--3--0--5---||----------------------------------|
      *     *     *  *  *

-------
|Verse|
-------
                          2x
e|------------------------||
B|------------------------||
G|--7--7--7---------77---#||
D|--7--7--7--555555-77-7-#||
A|--5--5--5--555555-55-7--||
E|--*--*--*--333333----5--||
   pm.......           *

------------
|Pre-chorus|
------------

e|--------------||
B|--------------||
G|--------------||
D|--5--7--4--2--||
A|--5--7--4--2--||
E|--3--5--2--0--||
    *  *  *

--------
|Chorus|
--------

e|--------------|--------------|--------------||
B|--------------|--------------|--------------||
G|--7-----------|--7-----------|--7-----------||
D|--7--9--5--7--|--7--9--5--7--|--7--9--5--7--||
A|--5--9--5--7--|--5--9--5--7--|--5--9--5--7--||
E|--*--7--3--5--|--*--7--3--5--|--*--7--3--5--||
       *  *  *        *  *  >        *  *  *

--------
|Bridge|
--------

e|------------------------------|-------------------||
B|------------------------------|-------------------||
G|--7---------------7-----------|--7----------------||
D|--7-------5-------7-------7---|--7--5--7-7-7-7-7--||
A|--5-------5-------5-------7---|--5--5--7-7-7-7-7--||
E|----------3---------------5---|--*--3--5-5-5-5-5--||
                                      *  > * * * *
                                  pm....   ........

--------
|Chorus|
--------

e|--------------|--------------|--------------||
B|--------------|--------------|--------------||
G|--7-----------|--7-----------|--7-----------||
D|--7--9--5--7--|--7--9--5--7--|--7--9--5--7--||
A|--5--9--5--7--|--5--9--5--7--|--5--9--5--7--||
E|--*--7--3--5--|--*--7--3--5--|--*--7--3--5--||
       *  *  *        *  *  >        *  *  *

-------
|Outro|
-------

e|---------------------------------|---------------------------||
B|---------------------------------|---------------------------||
G|-7-7-7-7-------------------------|-7-7-7-7-------------------||
D|-7-7-7-7-9-9-9-9-5-5-5-5-7-7-7-7-|-7-7-7-7-9-9-9-9-5-5-5-5-7-||
A|-5-5-5-5-9-9-9-9-5-5-5-5-7-7-7-7-|-5-5-5-5-9-9-9-9-5-5-5-5-7-||
E|---------7-7-7-7-3-3-3-3-5-5-5-5-|---------7-7-7-7-3-3-3-3-5-||


Important: The song above is NOT stored on the Chordie server. The original song is hosted at www.xguitar.com. Chordie works as a search engine and provides on-the-fly formatting. Chordie does not index songs against artists'/composers' will. To remove this song please click here.

This song is displayed as text-only. Transposing and tuning is only available for chordpro-songs.

Login - add to songbook

Rating click stars to rate

Layout
Accuracy

SHARE PAGE  




You need to log in to post comments