Guitar Tabs, Chords and Lyrics


Emily    Bowling For Soup



Band: Bowling for soup
Song: Emily
Album: Drunk Enough To Dance
Tabbed By:Jake Fuller
Standard tuning

This is a very easy song to learn and play, but you just
need to get the timing right so it is advised to listen to
the CD aswell.

- = palm mute
/ = slide

Intro:
|--------------------------------------------------------
|--------------------------------------------------------
|--------------------------------------------------------
|--------------------------------------------------------
|-7777777777777777-1111111111111111111111111111111-444444
|-5555555555555555-9-9-9-9-9-9-9-9-9-9-9-9-9-9-9-9-222222
  ---------------- ------------------------------- ------
                        Palm Mute
|-----------------------------------|
|-----------------------------------|
|-----------------------------------|
|------------77777777777777-7\\6\\7\\6-|
|-4444444444-55555555555555-5\\4\\5\\4-|
|-2222222222------------------------|
  ---------- --------------
         palm Mute

Bridge:

|--------------------------------------------------------
|--------------------------------------------------------
|--------------------------------------------------------
|--------------------------------------------------------
|-7777777777777777-1111111111111111111111111111111-444444
|-5555555555555555-9-9-9-9-9-9-9-9-9-9-9-9-9-9-9-9-222222

|----------------------------|
|----------------------------|
|----------------------------|
|------------77777777777777--|
|-4444444444-55555555555555--|
|-2222222222-----------------|




Chorus:
|-----------------------------------|---------------------
|-----------------------------------|---------------------
|-----------------------------------|---------------------
|----------99999999-7777777777777777|---------99999999-777
|-77777777-77777777-5555555555555555|77777777-77777777-555
|-55555555--------------------------|55555555-------------
  Emily.....
|----------------------------------------------------|
|----------------------------------------------------|
|----------------------------------------------------|
|-7777766666666--------------------------------------|
|-5555544444444--5-555555-77777777-99999999-99999999-|
|----------------3-333333-55555555-77777777-77777777-|
                   ------ -------- -------- -- -- --
                              Palm Mute

Interlude:
|---------------------|---------------------------------
|---------------------|---------------------------------
|---------------------|---------------------------------
|------9999------7777-|------9999-----------------------
|-7777-7777-7777-5555-|-7777-7777-7777---------44444444-
|-5555------5555------|-5555------5555-0-3-5-7-22222222-
she was always such a pretty girl...                               --------

|-------------------------|
|-------------------------|
|-------------------------|
|-77777777777777-7\\6\\7\\6--|
|-55555555555555-5\\4\\5\\4--|
|-------------------------|
Verse:
|--------------------------------------------------------
|--------------------------------------------------------
|--------------------------------------------------------
|--------------------------------------------------------
|-7777777777777777-1111111111111111111111111111111-444444
|-5555555555555555-9-9-9-9-9-9-9-9-9-9-9-9-9-9-9-9-222222
  ---------------- ------------------------------- ------
                      Palm Mute
|-----------------------------------|
|-----------------------------------|
|-----------------------------------|
|------------77777777777777-7\\6\\7\\6-|
|-4444444444-55555555555555-5\\4\\5\\4-|
|-2222222222------------------------|
  ---------- --------------
         palm Mute

Bridge:

|--------------------------------------------------------
|--------------------------------------------------------
|--------------------------------------------------------
|--------------------------------------------------------
|-7777777777777777-1111111111111111111111111111111-444444
|-5555555555555555-9-9-9-9-9-9-9-9-9-9-9-9-9-9-9-9-222222

|----------------------------|
|----------------------------|
|----------------------------|
|------------77777777777777--|
|-4444444444-55555555555555--|
|-2222222222-----------------|

Chorus:
|-----------------------------------|---------------------
|-----------------------------------|---------------------
|-----------------------------------|---------------------
|----------99999999-7777777777777777|---------99999999-777
|-77777777-77777777-5555555555555555|77777777-77777777-555
|-55555555--------------------------|55555555-------------
  Emily.....
|----------------------------------------------------|
|----------------------------------------------------|
|----------------------------------------------------|
|-7777766666666--------------------------------------|
|-5555544444444--5-555555-77777777-99999999-99999999-|
|----------------3-333333-55555555-77777777-77777777-|
                   ------ -------- -------- -- -- --
                              Palm Mute
Interlude:
|---------------------|---------------------------------
|---------------------|---------------------------------
|---------------------|---------------------------------
|------9999------7777-|------9999-----------------------
|-7777-7777-7777-5555-|-7777-7777-7777---------44444444-
|-5555------5555------|-5555------5555-0-3-5-7-22222222-
she was always such a pretty girl...                               --------
|--------------------------|
|--------------------------|
|--------------------------|
|-77777777777777-----------|
|-55555555555555--77777777-|
|-----------------55555555-|
                  --------
Interlude 2:
|------------------------------------------------------|
|------------------------------------------------------|
|------------------------------------------------------|
|-----7\\--------11\\-----4\\-7777-7\\6\\7\\6--------------7-|
|-7777---1111111----4444---5555-5\\4\\5\\4--7---11--4---5-|
|-5555---9-9-9-9----2222-----------------5---9---2-----|
  ----   -------    ----   ----                 let Ring

Chorus:
Chorus:
|-----------------------------------|---------------------
|-----------------------------------|---------------------
|-----------------------------------|---------------------
|----------99999999-7777777777777777|---------99999999-777
|-77777777-77777777-5555555555555555|77777777-77777777-555
|-55555555--------------------------|55555555-------------
  Emily.....
|----------------------------------------------------|
|----------------------------------------------------|
|----------------------------------------------------|
|-7777766666666--------------------------------------|
|-5555544444444--5-555555-77777777-99999999-99999999-|
|----------------3-333333-55555555-77777777-77777777-|
                   ------ -------- -------- -- -- --
                              Palm Mute

Chorus:
|-----------------------------------------------|
|-----------------------------------------------|
|-----------------------------------------------|
|--------------------5-5------------------------|
|-5-5---11-11--4-4---7-7--5---------------------|
|-7-7---9--9---2-2--------7---------------------|


Important: The song above is NOT stored on the Chordie server. The original song is hosted at www.xguitar.com. Chordie works as a search engine and provides on-the-fly formatting. Chordie does not index songs against artists'/composers' will. To remove this song please click here.

This song is displayed as text-only. Transposing and tuning is only available for chordpro-songs.

Login - add to songbook

Rating click stars to rate

Layout
Accuracy

SHARE PAGE  




You need to log in to post comments