Guitar Tabs, Chords and Lyrics


Greatest Day    Bowling For Soup



Artist: Bowling for Soup
Song: Greatest Day
Album: Drunk enough to dance





\\=slide down
*=play 8 times
=Accent on this note/chord
pm------=palm muted



-------
|Intro|
-------
  Guitar 2:              2x Guitar 1: (play 2nd time only)
e|------------------------||--------------|
B|------------------------||--------------|
G|#--5-555554------------#||10\\5--7-5-3---|
D|#--5-555554-3-333335---#||--------------|
A|---3-333332-3-333335----||--------------|
E|--->-*------1-111113----||--------------|
              > *
-------
|Verse|
-------
  I got...      I’m going out...   They all know...  go
e|-------------|------------------|-----------------|--------|
B|-------------|------------------|-----------------|--------|
G|-5------5----|------------------|-5-------5-------|-555554-|
D|-5------5----|-5------5---------|-5-------5-------|-555554-|
A|-3------3----|-5------5---------|-3-------3-------|-333332-|
E|-*------*----|-3------3---------|-*-------*-------|-*------|
                 *      *
  The sun...       Say...
e|----------------|------------|
B|----------------|------------|
G|--5-----5-------|-5--5--5----|
D|--5--3--5--3--3-|-5--5--5----|
A|--3--3--3--3--3-|-3--3--3----|
E|--*--1--*--1--1-|->--*--*----|
       *     *  *      pm pm
--------
|Chorus|
--------
  How far...               2x
e|--------------------------|
B|--------------------------|
G|#--5--5------------------#|
D|#--5--5--3--3--5--5--5---#|
A|---3--3--3--3--5--5--5----|
E|---*--*--1--1--3--3--3----|
           *  *  >  *  *
                   pm  pm
-------
|Intro|
-------
  Guitar 2:              2x Guitar 1: (play 2nd time only)
e|------------------------||--------------|
B|------------------------||--------------|
G|#--5-555554------------#||10\\5--7-5-3---|
D|#--5-555554-3-333335---#||--------------|
A|---3-333332-3-333335----||--------------|
E|--->-*------1-111113----||--------------|
              > *
-------
|Verse|
-------
  Standing...   And for a sec...   I never even...   go
e|-------------|------------------|-----------------|--------|
B|-------------|------------------|-----------------|--------|
G|-5------5----|------------------|-5-------5-------|-555554-|
D|-5------5----|-5------5---------|-5-------5-------|-555554-|
A|-3------3----|-5------5---------|-3-------3-------|-333332-|
E|-*------*----|-3------3---------|-*-------*-------|-*------|
                 *      *
The sun...         Say...
e|----------------|------------|
B|----------------|------------|
G|--5-----5-------|-5--5--5----|
D|--5--3--5--3--3-|-5--5--5----|
A|--3--3--3--3--3-|-3--3--3----|
E|--*--1--*--1--1-|->--*--*----|
       *     *  *      pm pm
--------
|Chorus|
--------
  How far...
e|-----------------------------------------------|
B|-----------------------------------------------|
G|---5--5------------------5--5------------------|
D|---5--5--3--3--5--5--5---5--5--3--3--5--55555\\-|
A|---3--3--3--3--5--5--5---3--3--3--3--5--55555\\-|
E|---*--*--1--1--3--3--3---*--*--1--1--3--33333\\-|
           *  *  >  *  *         *  *  > pm----
                   pm  pm
--------
|Bridge|
--------

e|--------------------|
B|--------------------|
G|--5--5--------------|
D|--5--5--3--3--5--5--|
A|--3--3--3--3--5--5--|
E|--*--*--1--1--3--3--|
          *  *  *  *
------
|Solo|
------
Guitar 1:  (guitar 2 plays intro)
e|-----------------------------------------|
B|-----------------------------------------|
G|-----------------------------------------|
D|--------22-5h7-5-3----3-2--------25-32---|
A|---3-55---------------------3-55------3--|
E|-----------------------------------------|


-------
|Verse|
-------
  I got...      I’m going out...   They all know...  go
e|-------------|------------------|-----------------|--------|
B|-------------|------------------|-----------------|--------|
G|-5\\----------|------------------|-5\\--------------|-555554-|
D|-5\\----------|-5\\---------------|-5\\--------------|-555554-|
A|-3\\----------|-5\\---------------|-3\\--------------|-333332-|
E|-------------|-3\\---------------|-----------------|-*------|

The sun...         Say...
e|----------------|----------------|
B|----------------|----------------|
G|--5-----5-------|-5--5--5--5--5--|
D|--5--3--5--3--3-|-5--5--5--5--5--|
A|--3--3--3--3--3-|-3--3--3--3--3--|
E|--*--1--*--1--1-|->--*--*--*--*--|
       *     *  *      pm pm pm pm
--------
|Chorus|
--------
  How far...              3x
e|-------------------------|--------------------------|
B|-------------------------|--------------------------|
G|#--5--5-----------------#|-5--5-----------------5\\--|
D|#--5--5--3--3--5--5--5--#|-5--5--3--3--5--5--5--5\\--|
A|---3--3--3--3--5--5--5---|-3--3--3--3--5--5--5--3\\--|
E|---*--*--1--1--3--3--3---|-*--*--1--1--3--3--3-->---|
                 *  *  >  *  *           *  *  >  *  *


Important: The song above is NOT stored on the Chordie server. The original song is hosted at www.xguitar.com. Chordie works as a search engine and provides on-the-fly formatting. Chordie does not index songs against artists'/composers' will. To remove this song please click here.

This song is displayed as text-only. Transposing and tuning is only available for chordpro-songs.

Login - add to songbook

Rating click stars to rate

Layout
Accuracy

SHARE PAGE  




You need to log in to post comments