Guitar Tabs, Chords and Lyrics


Life After Lisa    Bowling For Soup



Title: Life After Lisa
Artist: Bowling For Soup
Album: Drunk Enough To Dance


Tabbed by: MasterQT (jenslee88@hotmail.com)

Tuning: Standard (E A D G B E)

This is my first tab, I hope it's correct. If there are any mistakes please email me.


Intro

Guitar 1

 E|---------------------------------------||
 B|---------------------------------------||
 G|----4-4-4-4-4-4-4-4--------------------||
 D|----4-4-4-4-4-4-4-4-2-2-2-2-2-2-2-2----||>2x
 A|----2-2-2-2-2-2-2-2-2-2-2-2-2-2-2-2----||
 E|--------------------0-0-0-0-0-0-0-0----||
 pm    . . . . . . . . . . . . . . . .

Guitar 2

 E|---------------------------------------||
 B|---------------------------------------||
 G|---------------------------------------||
 D|---------------------------------------||>2x
 A|----1-1-1-2-2-2-4-4-1-1-1-2-2-2-4-4----||
 E|---------------------------------------||

Verse

 E|---------------------------------------||
 B|---------------------------------------||
 G|----4-4-4-4-4-4-4-4--------------------||
 D|----4-4-4-4-4-4-4-4-2-2-2-2-2-2-2-2----||>3x
 A|----2-2-2-2-2-2-2-2-2-2-2-2-2-2-2-2----||
 E|--------------------0-0-0-0-0-0-0-0----||
 pm    . . . . . . . . . . . . . . . .
(continued)

 E|---------------------------------------||
 B|---------------------------------------||
 G|----4-4-4-4-4-4-4-4--------------------||
 D|----4-4-4-4-4-4-4-4-2-2-2-2-2-4-4------||
 A|----2-2-2-2-2-2-2-2-2-2-2-2-2-4-4------||
 E|--------------------0-0-0-0-0-2-2------||
 pm    . . . . . . . . . . . . .
 E|---------------------------------------||
 B|---------------------------------------||
 G|----4-4-4-4-4-4-4-4--------------------||
 D|----4-4-4-4-4-4-4-4-2-2-2-2-2-2-2-2----||>2x
 A|----2-2-2-2-2-2-2-2-2-2-2-2-2-2-2-2----||
 E|--------------------0-0-0-0-0-0-0-0----||
 pm    . . . . . . . . . . . . . . . .
     ("you left me for a drummer...")
 E|---------------------------------------||
 B|---------------------------------------||
 G|----6-6-6-6-6-6-6-6--------------------||
 D|----6-6-6-6-6-6-6-6-6-6-6-6-6-6-6-6----||
 A|----4-4-4-4-4-4-4-4-6-6-6-6-6-6-6-6----||
 E|--------------------4-4-4-4-4-4-4-4----||
 pm    . . . . . . . . . . . . . . . .

 E|---------------------------------------||
 B|---------------------------------------||
 G|----2---2---2---2---2---2---X----------||
 D|----2---2---2---2---2---2---X----------||
 A|----0---0---0---0---0---0---X----------||
 E|---------------------------------------||


Chorus

 E|---------------------------------------||
 B|---------------------------------------||
 G|----4-4-4-4-4-4-4-4--------------------||
 D|----4-4-4-4-4-4-4-4-2-2-2-2-2-2-2-2----||>2x
 A|----2-2-2-2-2-2-2-2-2-2-2-2-2-2-2-2----||
 E|--------------------0-0-0-0-0-0-0-0----||

 E|---------------------------------------||
 B|---------------------------------------||
 G|---------------------------------------||
 D|----6-6-6-6-6-6-6-6-4-4-4-4-4-4-4-4----||
 A|----6-6-6-6-6-6-6-6-4-4-4-4-4-4-4-4----||
 E|----4-4-4-4-4-4-4-4-2-2-2-2-2-2-2-2----||

(continued)

      ("life after lisa is...")
 E|---------------------------------------||
 B|---------------------------------------||
 G|---------------------------------------||
 D|----2-2-2-2-2-2-2-2-4---4-X------------||
 A|----2-2-2-2-2-2-2-2-4---4-X------------||
 E|----0-0-0-0-0-0-0-0-2---2-X------------||


 E|---------------------------------------||
 B|---------------------------------------||
 G|----4-4-4-4-4-4-4-4--------------------||
 D|----4-4-4-4-4-4-4-4-2-2-2-2-2-2-2-2----||>2x
 A|----2-2-2-2-2-2-2-2-2-2-2-2-2-2-2-2----||
 E|--------------------0-0-0-0-0-0-0-0----||

Bridge 1

 E|---------------------------------------||
 B|---------------------------------------||
 G|----6---6---6---6----------------------||
 D|----6---6---6---6---6---6---6---6------||
 A|----4---4---4---4---6---6---6---6------||
 E|--------------------4---4---4---4------||

 E|---------------------------------------||
 B|---------------------------------------||
 G|---------------------------------------||
 D|----4-4---6-4-------4-4---6-4----------||
 A|--------6-------6-------6-------6------||
 E|---------------------------------------||


 E|---------------------------------------||
 B|---------------------------------------||

 G|----6---6---6---6----------------------||
 D|----6---6---6---6---2---2---2---2------||
 A|----4---4---4---4---2---2---2---2------||
 E|--------------------0---0---0---0------||


 E|-------------------------------------------------------||
 B|-------------------------------------------------------||
 G|--------------------2-2-2-2-2-2-2-2-2-2-2-2-2-2-2-X----||
 D|----4---4---4---4---2-2-2-2-2-2-2-2-2-2-2-2-2-2-2-X----||
 A|----4---4---4---4---0-0-0-0-0-0-0-0-0-0-0-0-0-0-0-X----||
 E|----2---2---2---2--------------------------------------||


Bridge 2

Guitar 1

 E|-------------------------------------------------------||
 B|-------------------------------------------------------||
 G|-------------------------------------------------------||
 D|-------------------------------------------------------||
 A|-------------------------------------------------------||
 E|----0-0-0-0-0-0-0-0-1-1-1-1-1-1-1-1-2-2-2-2-2-2-2-2----||
 pm    . . . . . . . . . . . . . . . . . . . . . . . .

(continued)

 E|-------------------------------------------------------||
 B|-------------------------------------------------------||
 G|-------------------------------------------------------||
 D|-------------------------------------------------------||
 A|-------------------------------------------------------||
 E|----3-3-3-3-3-3-3-3-4-4-4-4-4-4-4-4-2-2-2-2-2-2-2-2----||
 pm    . . . . . . . . . . . . . . . . . . . . . . . .

Guitar 2

 E|-------------------------------------------------------||
 B|-------------------------------------------------------||
 G|-------------------------------------------------------||
 D|-------------------------------------------------------||
 A|-------------------------------------------------------||
 E|----0-------------0-1-------------1-2------------------||

(continued)

 E|-------------------------------------------------------||
 B|-------------------------------------------------------||
 G|-------------------------------------------------------||
 D|-------------------------------------------------------||
 A|-------------------------------------------------------||
 E|---2-3-------------3-4-------------4-2-----------------||

Guitar 1 & 2

 E|--------------------------------------------------||
 B|--------------------------------------------------||
 G|--------------------------------------------------||
 D|----2-2-2-2-2-2-2-2-4-4-4-4-X---------------------||
 A|----2-2-2-2-2-2-2-2-4-4-4-4-X---------------------||
 E|----0-0-0-0-0-0-0-0-2-2-2-2-X---------------------||

Outro

 E|---------------------------------------||
 B|---------------------------------------||
 G|----4-4-4-4-4-4-4-4--------------------||
 D|----4-4-4-4-4-4-4-4-2-2-2-2-2-2-2-2----||>x8
 A|----2-2-2-2-2-2-2-2-2-2-2-2-2-2-2-2----||
 E|--------------------0-0-0-0-0-0-0-0----||

 E|--------------||
 B|--------------||
 G|--------------||
 D|----9-9--\----||
 A|----9-9--\----||
 E|----7-7--\----||



Intro
Verse
Chorus
Verse
Chorus
Bridge 1
Chorus (Without Part "Life after Lisa...")
Bridge 2


Important: The song above is NOT stored on the Chordie server. The original song is hosted at www.xguitar.com. Chordie works as a search engine and provides on-the-fly formatting. Chordie does not index songs against artists'/composers' will. To remove this song please click here.

This song is displayed as text-only. Transposing and tuning is only available for chordpro-songs.

Login - add to songbook

Rating click stars to rate

Layout
Accuracy

SHARE PAGE  




You need to log in to post comments