Guitar Tabs, Chords and Lyrics


Out the Window    Bowling For Soup



BOWLING FOR SOUP - OUT THE WINDOW
tabber - happypunx (gaystar75@hotmail.com)
================================================
KEY:-
  pm...= palm mute
  x    = muffled string
  h    = hammer on
  p    = pull off
===============================================
INTRO
|---------|
|---------|
|-4-4-4-4-|
|-4-4-4-4-|
|-2-2-2-2-|
|---------|
  pm.....
===============================================
VERSE
GTR1
|------------------------------|
|------------------------------|
|-4-4--xx--4-4--xx--9-9--------| x2
|-4-4--xx--4-4--xx--9-9-xx-4-4-|
|-2-2--xx--2-2--xx--7-7-xx-4-4-|
|-----------------------xx-2-2-|
GTR2
|------------------------------|
|-4-5-7-0--0-----0--0h4h5p4p0--|
|------------3-3---------------|
|------------------------------|
|------------------------------|
|------------------------------|

===============================================
CHORUS
GTR1
|---------------------------|
|---------------------------|
|-4-4-4-4-4-4--9-9----------| x4
|-4-4-4-4-4-4--9-9--4-4-4-4-|
|-2-2-2-2-2-2--7-7--4-4-4-4-|
|-------------------2-2-2-2-|
GTR2
|---------------------------|
|---------------------------|
|-4-4-4-4-4-4---------------| x4
|-4-4-4-4-4-4--2-2--4-4-4-4-|
|-2-2-2-2-2-2--2-2--4-4-4-4-|
|--------------0-0--2-2-2-2-|

===============================================
INTER PART1
|------------------------------------|
|------------------------------------|
|-------------------4444444444444444-| x2
|-22222222-44444444-4444444444444444-|
|-22222222-44444444-2222222222222222-|
|-00000000-22222222------------------|
  pm........................
===============================================
INTER PART2
|------------------------------------------|
|------------------------------------------|
|----------------------444444444-----------| x2
|-222222222-4444444444-444444444-666666666-|
|-222222222-4444444444-222222222-666666666-|
|-000000000-2222222222-----------444444444-|

===============================================
INTER PART3
|----------------------------------|
|----------------------------------|
|----------------------------------|
|-2-2-2-2-2-2-2-2--4-4-4-4-4-4-4-4-|
|-2-2-2-2-2-2-2-2--4-4-4-4-4-4-4-4-|
|-0-0-0-0-0-0-0-0--2-2-2-2-2-2-2-2-|

===============================================
GTR2 Variation
|------------------------|
|------------------------|
|-44444444/9-(4)xxxxxxxx-|
|-xxxxxxxx/x-(4)xxxxxxxx-|
|-22222222/7-(2)xxxxxxxx-|
|------------------------|

===============================================
INTRO
VERSEx2 (GTR2 last time)
VERSEx2
CHORUS
VERSE   (GTR2)
VERSEx2
CHORUS
VERSE   (GTR2)
INTER PART1
INTER PART2
INTER PART3
VERSE with gtr2 variation
CHORUS
VERSEx2 (GTR2)
  !!!TRICK!!!
VERSEx2

 When Gtr 2 isn't doing it's own thing it joins
in with Gtr 1.


Important: The song above is NOT stored on the Chordie server. The original song is hosted at www.xguitar.com. Chordie works as a search engine and provides on-the-fly formatting. Chordie does not index songs against artists'/composers' will. To remove this song please click here.

This song is displayed as text-only. Transposing and tuning is only available for chordpro-songs.

Login - add to songbook

Rating click stars to rate

Layout
Accuracy

SHARE PAGE  




You need to log in to post comments