Guitar Tabs, Chords and Lyrics


Self-Centered    Bowling For Soup



====================================================
      BOWLING FOR SOUP - SELF CENTERED
====================================================
INTRO
|-2---0h2-----2---0h2-----2---0h2-3---2---0h2--|
|---3-----3-----3-----3-----3-----------3----3-|
|----------------------------------------------|
|----------------------------------------------|
|----------------------------------------------|
|----------------------------------------------|

|----------------------------------------------|
|----------------------------------------------|
|-777777777--------------9999999999------------|
|-777777777--7777777777--9999999999--555555555-|
|-555555555--7777777777--7777777777--555555555-|
|------------5555555555--------------333333333-|

====================================================
VERSE
|--5-5-x-x-x--5-5-x-x-x--7-7-x-x-x--3-3-x-x-x--|
|--7-7-x-x-x--5-5-x-x-x--9-9-x-x-x--3-3-x-x-x--|
|--7-7-x-x-x--6-6-x-x-x--9-9-x-x-x--4-4-x-x-x--|
|--7-7-x-x-x--7-7-x-x-x--9-9-x-x-x--5-5-x-x-x--|
|--5-5-x-x-x--7-7-x-x-x--7-7-x-x-x--5-5-x-x-x--|
|-------------5-5-x-x-x-------------3-3-x-x-x--|
       let some notes ring out
====================================================
CHORUS 1
|--------------------------------------------------|
|--------------------------------------------------|
|-----------------7777777777777777-----------------|
|-5555555-7777777-7777777777777777-5555555-7777777-|
|-5555555-7777777-5555555555555555-5555555-7777777-|
|-3333333-5555555------------------3333333-5555555-|
  pm.................... .. .. ...................

====================================================
BRIDGE
|--------------------------|
|--------------------------|
|-7--6--4--7---------------|
|-7--6--4--7-555555-777777-|
|-5--4--2--5-555555-777777-|
|------------333333-555555-|

====================================================
CHORUS 2
|----------------------------------------|
|----------------------------------------|
|-7-7-----------------7-7----------------|
|-7-7--7-7--5-5--5-7--7-7--7-7--5-5--5-7-|
|-5-5--7-7--5-5--5-7--5-5--7-7--5-5--5-7-|
|------5-5--3-3--3-5-------5-5--3-3--3-5-|

====================================================
OUTRO
|----------------------------|
|----------------------------|
|--------------------------7-|
|-55555555-77777777--5--7--7-|
|-55555555-77777777--5--7--5-|
|-33333333-55555555--3--5----|

====================================================
INTRO     X2
VERSE     X2
CHORUS 1
BRIDGE
CHORUS 2
BRIDGE
INTRO
VERSE     X2
CHORUS 1
BRIDGE
CHROUS 2
BRIDGE
CHORUS 2
BRIDGE

2nd half of BRIDGE
CHORUS 2
BRIDGE
CHORUS 2
BRIDGE
OUTRO


Important: The song above is NOT stored on the Chordie server. The original song is hosted at www.xguitar.com. Chordie works as a search engine and provides on-the-fly formatting. Chordie does not index songs against artists'/composers' will. To remove this song please click here.

This song is displayed as text-only. Transposing and tuning is only available for chordpro-songs.

Login - add to songbook

Rating click stars to rate

Layout
Accuracy

SHARE PAGE  




You need to log in to post comments