Guitar Tabs, Chords and Lyrics


The Hard Way    Bowling For Soup



Song: The hard way
Artist: Bowling for Soup
Album: Drunk Enough to dance





 = Accent on this chord
pm-------- = Palm mute
* = play 8 times
h = hammer-on
p = pull-off
x = muted
\\ = Slide down


-------
|Intro|
-------
  Guitar 2
e|-------------------|--------------|
B|-------------------|--------------|
G|--7-xx--7-xx--5----|--7--7--5-----|
D|--7-xx--7-xx--5--5-|--7--7--5--5--|
A|--5-xx--5-xx--3--5-|--5--5--3--5--|
E|-->----->-----*--3-|--*--*--*--3--|
                   *             *
  Guitar 1
e|-------------------------------|-------------------------|---|
B|-------------------------------|-------------------------|---|
G|-------------------------------|---457---797---797---797-|---|
D|---4h57--4h5p4---4h5p4---4h5p4-|---457---777---777---777-|---|
A|--5----5------53------3--------|-5-----5----53----3------|-5-|
E|-----------------------3-------|-------------------3-----|---|


-------
|Verse|
-------
  Guitar 2
e|----------------------------|
B|----------------------------|
G|--7--7--5-----7--7--5-------|
D|--7--7--5--5--7--7--5--5\\---|
A|--5--5--3--5--5--5--3--5\\---|
E|--*--*--*--3--*--*--*--3\\---|
   pm--------*---------


------------
|Pre-Chorus|
------------
  Guitar 2     2x               Guitar 1       2x
e|--------------|-----------| e|---------------|----------|
B|--------------|-----------| B|---------------|----------|
G|#-7--7--5----#|--9-9-7-7--| G|#-------------#|----------|
D|#-7--7--5--5-#|--9-9-7-7--| D|#-------------#|----54204-|
A|--5--5--3--5--|--7-7-5-5--| A|---------------|----------|
E|--*--*--*--3--|--*-*-*-*--| E|---------------|----------|
             *

--------
|Chorus|
--------
  Guitar 2
e|--------------|-----------------------|
B|--------------|-----------------------|
G|--7-----7-----|--7-7-5-5--------------|
D|--7--5--7--7--|--7-7-5-5-5-5-5-5-7-7--|
A|--5--5--5--7--|--5-5-3-3-5-5-5-5-7-7--|
E|--*--3--*--5--|----------3-3-3-3-5-5--|
       *     *

-------
|Intro|
-------
  Guitar 2
e|-------------------|
B|-------------------|
G|--7-7---7-7---5----|
D|--7-7---7-7---5--5-|
A|--5-5---5-5---3--5-|
E|-->->--->->---*--3-|
                   *
  Guitar 1
e|-------------------------------|---|
B|-------------------------------|---|
G|-------------------------------|---|
D|---4h57--4h5p4---4h5p4---4h5p4-|---|
A|--5----5------53------3--------|-5-|
E|-----------------------3-------|---|


-------
|Verse|
-------
  Guitar 2
e|----------------------------|
B|----------------------------|
G|--7--7--5-----7--7--5-------|
D|--7--7--5--5--7--7--5--5\\---|
A|--5--5--3--5--5--5--3--5\\---|
E|--*--*--*--3--*--*--*--3\\---|
   pm--------*---------

------------
|Pre-Chorus|
------------
  Guitar 2     2x          2x   Guitar 1       2x         2x
e|--------------|-----------| e|---------------|----------|
B|--------------|-----------| B|---------------|----------|
G|#-7--7--5----#|#-9-9-7-7-#| G|#-------------#|#--------#|
D|#-7--7--5--5-#|#-9-9-7-7-#| D|#-------------#|#---54204#|
A|--5--5--3--5--|--7-7-5-5--| A|---------------|----------|
E|--*--*--*--3--|--*-*-*-*--| E|---------------|----------|
             *

--------
|Chorus|
--------
  Guitar 2
e|--------------|---------------------------|---------------------|
B|--------------|---------------------------|---------------------|
G|--7-----7-----|-7-7-5-5-----------7-7-7-7-|-7-7-5-5-------------|
D|--7--5--7--7--|-7-7-5-5-5-5-5-5-7-7-7-7-7-|-7-7-5-5-5-5-5-5-7-7-|
A|--5--5--5--7--|-5-5-3-3-5-5-5-5-7-5-5-5-5-|-5-5-3-3-5-5-5-5-7-7-|
E|--*--3--*--5--|---------3-3-3-3-5---------|---------3-3-3-3-5-5-|
       *     *                    *

--------
|Bridge|
--------
  Guitar 2                                 2x
e|------------|------------------|---------|------------|-----------|
B|------------|------------------|---------|------------|-----------|
G|-7-7-7777---|-7-7-5---7-7-5----|#6-7---9#|-6-7---9999-|-----------|
D|-7-7-7777-7-|-7-7-5-5-7-7-5-55-|#6-7-7-9#|-6-7-7-9999-|-5555-7777-|
A|-5-5-5555-7-|-5-5-3-5-5-5-3-55-|-4-5-7-7-|-4-5-7-7777-|-5555-7777-|
E|----------5-|-*-*-*-3-*-*-*-33-|-*-*-5-*-|-*-*-5------|-3333-5555-|
            *         *       >>       *         *
  Guitar 1                       4x
e|------------|------------------|---------|------------|-----------|
B|------------|------------------|---------|------------|-----------|
G|------------|#----------------#|---------|------------|-----------|
D|------------|#-0-000245-55542-#|---------|------------|-----------|
A|------------|--------(5)-(5)---|---------|-------75420|------5555-|
E|------------|------------------|---------|------------|-3333------|
               Play the notes between () 4th time

--------
|Chorus|
--------
  Guitar 2
e|--------------|---------------------------|---------------------|
B|--------------|---------------------------|---------------------|
G|--7-----7-----|-7-7-5-5-----------7-7-7-7-|-7-7-5-5-------------|
D|--7--5--7--7--|-7-7-5-5-5-5-5-5-7-7-7-7-7-|-7-7-5-5-5-5-5-5-7-7-|
A|--5--5--5--7--|-5-5-3-3-5-5-5-5-7-5-5-5-5-|-5-5-3-3-5-5-5-5-7-7-|
E|--*--3--*--5--|---------3-3-3-3-5---------|---------3-3-3-3-5-5-|
       *     *                    *

-------
|Intro|
-------
  Guitar 2
e|-------------------|--------------|----|
B|-------------------|--------------|----|
G|--7-7---7-7---5----|--7--7--5-----|-7\\-|
D|--7-7---7-7---5--5-|--7--7--5--5--|-7\\-|
A|--5-5---5-5---3--5-|--5--5--3--5--|-5\\-|
E|-->----->-----*--3-|--*--*--*--3--|----|
                   *             *
  Guitar 1
e|-------------------------------|-------------------------|---|
B|-------------------------------|-------------------------|---|
G|-------------------------------|---457---797---797---797-|---|
D|---4h57--4h5p4---4h5p4---4h5p4-|---457---777---777---777-|---|
A|--5----5------53------3--------|-5-----5----53----3------|-5-|


Important: The song above is NOT stored on the Chordie server. The original song is hosted at www.xguitar.com. Chordie works as a search engine and provides on-the-fly formatting. Chordie does not index songs against artists'/composers' will. To remove this song please click here.

This song is displayed as text-only. Transposing and tuning is only available for chordpro-songs.

Login - add to songbook

Rating click stars to rate

Layout
Accuracy

SHARE PAGE  




You need to log in to post comments