Guitar Tabs, Chords and Lyrics


Andrew    Bowling For Soup



Bowling for Soup - Andrew


Intro
e|---------------------------------------------------------------------------|
B|---------------------------------------------------------------------------|
G|-9-7-6---------------------------------------------------------------------|
D|-9-7-6-7--x4-----9---------------------------------------------------------|
A|-7-5-4-7---------9---------------------------------------------------------|
E|-------5---------7---------------------------------------------------------|
                  Pm.........
Verse
e|---------------------------------------------------------------------------|
B|---------------------------------------------------------------------------|
G|-9-------------------------------------------------------------------------|
D|-9--7-----9----------------------------------------------------------------|
A|-7--7--x4-9----------------------------------------------------------------|
E|----5-----7----------------------------------------------------------------|
            Pm........
Chorus
e|---------------------------------------------------------------------------|
B|---------------------------------------------------------------------------|
G|-4----7------4-------------------------------------------------------------|
D|-4--7-7--x4--4---7---5-----------------------------------------------------|
A|-2--7-5------2---7---5-----------------------------------------------------|
E|----5------------5---3-----------------------------------------------------|

Verse

Chorus

Bridge
e|--------------------------------------------------------------------------|
B|--------------------------------------------------------------------------|
G|------7-------------------------------------------------------------------|
D|-10---7---7---------------------------------------------------------------|
A|-10---5---7---------------------------------------------------------------|


Important: The song above is NOT stored on the Chordie server. The original song is hosted at www.xguitar.com. Chordie works as a search engine and provides on-the-fly formatting. Chordie does not index songs against artists'/composers' will. To remove this song please click here.

This song is displayed as text-only. Transposing and tuning is only available for chordpro-songs.

Login - add to songbook

Rating click stars to rate

Layout
Accuracy

SHARE PAGE  




You need to log in to post comments