Guitar Tabs, Chords and Lyrics


Boulevard    Bowling For Soup



band : bowling for soup
song : boulevard


Intro
e---------------------------------------------------
B--5--3--2-------5--3--2-----5--3--2-----------------I
G-----------2-------------2-----------2--------------I
D----------------------------------------4--2--2-2-2-I
A----------------------------------------------2-2-2-I
E----------------------------------------------0-0-0-I

Verse

e------------------------I
B------------------------I  X2
g--------------5---------I
D--7---4---9---5---5--2--I	
A--7---4---9---3---5--2--I
E--5---2---7-------3--0--I

PreChorus

e-------------------------------------------------I
B-------------------------------------------------I X1
G------------7--------------9---------------------I
D---4--7--9--7--7--4--7--9--9---------------------I
A---4--7--9--5--7--4--7--9--7---------------------I
E---2--5--7-----5--2--5--7------------------------I

Chorus

e---------------------------I
B---------------------------I X1
G--7--9--------7--9---------I
D--7--9--7--4--7--9--7------I
A--5--7--7--4--5--7--7------I
E--------5--2--------5------I

	
verse X2
prechorus
chorus
intro X2
prechorus
Chorus X2

outro

e-------------------I
B-------------------I
G----------------7--I
D--7-7-7-7-7/4/7-7--I
A--7-7-7-7-7/4/7-5--I


Important: The song above is NOT stored on the Chordie server. The original song is hosted at www.xguitar.com. Chordie works as a search engine and provides on-the-fly formatting. Chordie does not index songs against artists'/composers' will. To remove this song please click here.

This song is displayed as text-only. Transposing and tuning is only available for chordpro-songs.

Login - add to songbook

Rating click stars to rate

Layout
Accuracy

SHARE PAGE  




You need to log in to post comments