Chordie logo

Dance With You    Bowling For Soup



Band: Bowling For soup
NAme of song: Dance With You
Tuning Satndard
If you have any comments or questons about the tab email me at punk_ataris_182@hotmail.com

Intro X2

E| ----------------------------------------------------------------------------
B| ----------------------------------------------------------------------------
G| ---555555-------------------------------------------------------------------
D| ---555555--555555--777777-----333333----------------------------------------
A| ---333333--555555--777777-----333333----------------------------------------
E| -----------333333--555555--0--111111----------------------------------------


Verse X4

E| ----------------------------------------------------------------------------
B| ----------------------------------------------------------------------------
G| ----------------------------------------------------------------------------
D| ---777777--555555--333333-33------------------------------------------------
A| ---777777--555555--333333-33------------------------------------------------
E| ---555555--333333--111111-11------------------------------------------------
pm--------------------------


Chorus X4

E| --------------------------------------|-Second time and fourth time---------
B| --------------------------------------|-------------------------------------
G| ---555555-----------------------------|---555555----------------------------
D| ---555555--555555--777777-----333333--|---555555--555555--333333--333333----
A| ---333333--555555--777777-----333333--|---333333--555555--333333--333333----
E| -----------333333--555555--0--111111--|-----------333333--111111--111111----
3 time------------------------^

Verse X4

E| ----------------------------------------------------------------------------
B| ----------------------------------------------------------------------------
G| ----------------------------------------------------------------------------
D| ---777777--555555--333333-33------------------------------------------------
A| ---777777--555555--333333-33------------------------------------------------
E| ---555555--333333--111111-11------------------------------------------------
pm--------------------------

Chorus X4

E| --------------------------------------|-Second time and fourth time---------
B| --------------------------------------|-------------------------------------
G| ---555555-----------------------------|---555555----------------------------
D| ---555555--555555--777777-----333333--|---555555--555555--333333--333333----
A| ---333333--555555--777777-----333333--|---333333--555555--333333--333333----
E| -----------333333--555555--0--111111--|-----------333333--111111--111111----
3 time------------------------^


Bridge X2

E| ----------------------------------------------------------------------------
B| ----------------------------------------------------------------------------
G| ---555555-------------------------------------------------------------------
D| ---555555--555555--777777-----333333----------------------------------------
A| ---333333--555555--777777-----333333----------------------------------------
E| -----------333333--555555--0--111111----------------------------------------
Second  time------------------^

Outro X4

E| ------------------------------------|-Last time play this-------------------
B| ------------------------------------|---------------------------------------
G| ------------------------------------|---------------------------------------

D| ---555555--777777--333333--333333---|---5~~~~~--7~~~~~--3~~~~~~~~~~---------
A| ---555555--777777--333333--333333---|---5~~~~~--7~~~~~--3~~~~~~~~~~---------
E| ---333333--555555--111111--111111---|---3~~~~~--5~~~~~--1~~~~~~~~~~---------





Important: The song above is NOT stored on the Chordie server. The original song is hosted at www.xguitar.com. Chordie works as a search engine and provides on-the-fly formatting. Chordie does not index songs against artists/composers will. To remove this song please click here.

This song is displayed as text-only. Transposing and tuning is only available for chordpro-songs.

Login - add to songbook

Rating click stars to rate

Layout
Accuracy

SHARE PAGE  

You need to log in to post comments