Guitar Tabs, Chords and Lyrics


The Bitch Song    Bowling For Soup



Intro pt.1 (x1): Rythm
e|-----------------------------|
B|-----------------------------|
G|---------7------5~~~---------|
D|-5-------7------5~~~---------|
A|-5-------5------3~~~---------|
E|-3---------------------------|

Intro pt.1 (x1): lead
e|-3-5-5-5-3-3-3-2-2-2-3-3-3-5-5-3-3-3-2-2-2-3-------|
B|-3-3-3-3-3-3-3-3-3-3-3-3-3-3-3-3-3-3-3-3-3-3-------|
G|---------------------------------------------------|
D|---------------------------------------------------|
A|---------------------------------------------------|
E|---------------------------------------------------|

Intro pt.2 (x1): both guitars
e|----------------------------------------------|
B|----------------------------------------------|
G|----------7-7-7-7--5-5-5-5-5-5-5-5------------|
D|-5-5-5-5--7-7-7-7--5-5-5-5-5-5-5-5------------|
A|-5-5-5-5--5-5-5-5--3-3-3-3-3-3-3-3------------|
E|-3-3-3-3--------------------------------------|

Verse1 (x1): "Is it ok..."
e|-----------------|
B|-----------------|
G|----7--5~~~------|
D|-5--7--5~~~------|(x1)
A|-5--5--3~~~------|
E|-3---------------|

"Look up, or crack up..."
e|----------------------------------------------------|
B|----------------------------------------------------|
G|----------------------7-7-x-x-x-x-x-x-x-x--5~~~-----|
D|-5-5-x-x-x-x-x-x-x-x--7-7-x-x-x-x-x-x-x-x--5~~~-----|
A|-5-5-x-x-x-x-x-x-x-x--5-5-x-x-x-x-x-x-x-x--3~~~-----|
E|-3-3-x-x-x-x-x-x-x-x--------------------------------|
       x=palm mute

Chorus (x4):
e|--------------------------------------|
B|--------------------------------------|
G|----------7-7-7-7--5-5-5-5-5-5-5-5----|
D|-5-5-5-5--7-7-7-7--5-5-5-5-5-5-5-5----|
A|-5-5-5-5--5-5-5-5--3-3-3-3-3-3-3-3----|
E|-3-3-3-3------------------------------|

Verse2: "So you tell me..."
e|-----------------------------------------------------------------|
B|-----------------------------------------------------------------|
G|--------------------(7)-x-x-x-x-x-x-x-x--(5)-x-x-x-x-x-x-x-x-----|
D|-5-x-x-x-x-x-x-x-x--(7)-x-x-x-x-x-x-x-x--(5)-x-x-x-x-x-x-x-x-----|
A|-5-x-x-x-x-x-x-x-x--(5)-x-x-x-x-x-x-x-x--(3)-x-x-x-x-x-x-x-x-----|
E|-3-x-x-x-x-x-x-x-x-----------------------------------------------|
  the parentheses means tells you what chord you palm mute

"Grow up, I wish you'd grow up..."
e|-------------------------------------------------------|
B|-------------------------------------------------------|
G|------------------7-7-7-7-7-7-7-7--5-5-5-5-5-5-5-5-----|
D|-5-5-5-5-5-5-5-5--7-7-7-7-7-7-7-7--5-5-5-5-5-5-5-5-----|
A|-5-5-5-5-5-5-5-5--5-5-5-5-5-5-5-5--3-3-3-3-3-3-3-3-----|
E|-3-3-3-3-3-3-3-3---------------------------------------|

Chorus (x4)

Bridge pt.1 (x3): rythm
e|--------------------|
B|--------------------|
G|--------------------|
D|-9~~~--7--9--5------|
A|--------------------|
E|-7~~~--5--7--3------|

Bridge pt.1: lead
e|-3-3-3-3-3-3-3-3---|
B|-3-3-3-3-3-3-3-3---| I'm not exactly sure how many times you do this,
G|-------------------| but you start after the rythm guitar goes through
D|-------------------| the bridge part once.
A|-------------------|
E|-------------------|

Bridge pt.2 (x?): both guitars
"la,la..."
e|------------------------|
B|------------------------|
G|----------7-7--5-5-5-5--|
D|-5-5-5-5--7-7--5-5-5-5--|strum slowly
A|-5-5-5-5--5-5--3-3-3-3--|
E|-3-3-3-3----------------|

e|-----------------------------|
B|-----------------------------|
G|------7-7-7-7-7-7-7-7--5~~~--|
D|-5-5--7-7-7-7-7-7-7-7--5~~~--|
A|-5-5--5-5-5-5-5-5-5-5--3~~~--|
E|-3-3-------------------------|

Chorus (x4)

Ending: "ya your a bitch..."
e|-------------------------|
B|-------------------------|
G|--------7~~~---5~~~------|
D|-5~~~---7~~~---5~~~---5--|
A|-5~~~---5~~~---3~~~---5--|


Important: The song above is NOT stored on the Chordie server. The original song is hosted at www.xguitar.com. Chordie works as a search engine and provides on-the-fly formatting. Chordie does not index songs against artists'/composers' will. To remove this song please click here.

This song is displayed as text-only. Transposing and tuning is only available for chordpro-songs.

Login - add to songbook

Rating click stars to rate

Layout
Accuracy

SHARE PAGE  




You need to log in to post comments