Guitar Tabs, Chords and Lyrics


You and Me    Bowling For Soup



-------------------------------------------------------------------------------------
Tema     : You And Me
Artista  : Bowling For Soup
Album    : Let's Do It For Johnny
Tabber   : Luis Martínez
-------------------------------------------------------------------------------------

E|--------------------------------------------------------------|
B|--------------------------------------------------------------|
G|--5/7/9--14/12-14/12--9-7-5-5-7-5-5/7/9--14/12-14/12--7-9-5~--|
D|--X/X/X---X/-X--X/-X--x-x-x-x-x-x-x/x/x---x/-x--x/-x--x-x-x~--|
A|--3/5/7--12/10-12/10--7-5-3-3-7-3-3/5/7--12/10-12/10--7-5-3~--|
E|--------------------------------------------------------------|

E|-----------------------------------|
B|-----------------------------------|  X3
G|--5-5-5-5--------------------------|
D|--5-5-5-5-5-5-5-5-3-3-3-3-3-3-3-3--|
A|--3-3-3-3-5-5-5-5-3-3-3-3-3-3-3-3--|
E|----------3-3-3-3-1-1-1-1-1-1-1-1--|

E|------------------------------------|
B|------------------------------------|
G|--5-5-5-5---------------------------|
D|--5-5-5-5-5-5-5-5-3333333333333333--|
A|--3-3-3-3-5-5-5-5-3333333333333333--|
E|----------3-3-3-3-1111111111111111--|
P.M.                ________________
                                               __
E|-----------------------------------|           |
B|-----------------------------------|           |
G|--5-5-5-5---------7-7-7-7----------|           |
D|--5-5-5-5-5-5-5-5-7-7-7-7-3-3-3-3--|           |
A|--3-3-3-3-5-5-5-5-5-5-5-5-3-3-3-3--|           |
E|----------3-3-3-3---------1-1-1-1--|           |
                                                 | 2X
E|-----------------------------------|           |
B|-----------------------------------|           |
G|--5-5-5-5--------------------------|           |
D|--5-5-5-5-5-5-5-5-3-3-3-3-3-3-3-3--|           |
A|--3-3-3-3-5-5-5-5-3-3-3-3-3-3-3-3--|           |
E|----------3-3-3-3-1-1-1-1-1-1-1-1--|         __|
P.M.                _______________

E|-----------------------------------|
B|-----------------------------------|
G|--5-5-5-5-5-5-5-5------------------|
D|--5-5-5-5-5-5-5-5-5-5-5-5-5-5-5-5--|
A|--3-3-3-3-3-3-3-3-5-5-5-5-5-5-5-5--|
E|------------------3-3-3-3-3-3-3-3--|

E|----------------------------------|
B|----------------------------------|
G|----------------------------------|
D|--333333-3-333333333-3-33-3-33-3--|
A|--333333-3-333333333-3-33-3-33-3--|
E|--111111-1-111111111-1-11-1-11-1--|
p.M ______   _____________________

E|-----------------------------------|
B|-----------------------------------|  X3
G|--5-5-5-5--------------------------|
D|--5-5-5-5-5-5-5-5-3-3-3-3-3-3-3-3--|
A|--3-3-3-3-5-5-5-5-3-3-3-3-3-3-3-3--|
E|----------3-3-3-3-1-1-1-1-1-1-1-1--|

E|------------------------------------|
B|------------------------------------|
G|--5-5-5-5---------------------------|
D|--5-5-5-5-5-5-5-5-3333333333333333--|
A|--3-3-3-3-5-5-5-5-3333333333333333--|
E|----------3-3-3-3-1111111111111111--|
P.M.                ________________

E|---------------------------|    |
B|---------------------------|    |
G|--55557777999910-10-10-10--|    |  Guitar  2
D|--XXXXXXXXXXXX-X--X--X--X--|    |
A|--333355557777-8--8--8--8--|    |
E|---------------------------|    |

E|-----------------------------------|           |
B|-----------------------------------|           |
G|--5-5-5-5---------7-7-7-7----------|           |
D|--5-5-5-5-5-5-5-5-7-7-7-7-3-3-3-3--|           |
A|--3-3-3-3-5-5-5-5-5-5-5-5-3-3-3-3--|           |
E|----------3-3-3-3---------1-1-1-1--|           |
                                                 | 2X
E|-----------------------------------|           |
B|-----------------------------------|           |
G|--5-5-5-5--------------------------|           |
D|--5-5-5-5-5-5-5-5-3-3-3-3-3-3-3-3--|           |
A|--3-3-3-3-5-5-5-5-3-3-3-3-3-3-3-3--|           |
E|----------3-3-3-3-1-1-1-1-1-1-1-1--|         __|
P.M.                _______________

                                          __
E|-----------------------------------|      |
B|-----------------------------------|      |
G|--5-5-5-5-5-5-5-5------------------|      |
D|--5-5-5-5-5-5-5-5-5-5-5-5-5-5-5-5--|      |
A|--3-3-3-3-3-3-3-3-5-5-5-5-5-5-5-5--|      |
E|------------------3-3-3-3-3-3-3-3--|      |
                                            | 2X
E|----------------------------------|       |
B|----------------------------------|       |
G|----------------------------------|       |
D|--333333-3-333333333-3-33-3-33-3--|       |
A|--333333-3-333333333-3-33-3-33-3--|       |
E|--111111-1-111111111-1-11-1-11-1--|     __|
p.M ______   _____________________


E|-----------------------------------------------------------|   |
B|-----------------------------------------------------------|   |
G|--5/7/9-10-9-7-5/7/9-10-9-7-5~--7~--9~--10~--10/9/7-5-5-7--|   |
D|--X/X/X--X-X-X-X/X/X--X-X-X-X~--X~--X~---X~---X/X/X-X-X-X--|   |
A|--3/5/7--8-7-5-3/5/7--8-7-5-3~--5~--7~---8~---8/7/5-3-3-5--|   |
E|-----------------------------------------------------------|   |
                                                                 |  Guitar 2
E|-----------------------------------------------------|         |
B|-----------------------------------------------------|         |
G|--10/9/7-5-5-7~--9~--10~--9~-7~-5~---5~----5~----5~--|         |
D|---X/X/X-X-X-X~--X~---X~--X~-X~-X~---X~----X~----X~--|         |
A|---8/7/5-3-3-5~--7~---8~--7~-5~-3~---3~----3~----3~--|         |
E|-----------------------------------------------------|         |

E|-----------------------------------|
B|-----------------------------------|  X3
G|--5-5-5-5--------------------------|
D|--5-5-5-5-5-5-5-5-3-3-3-3-3-3-3-3--|
A|--3-3-3-3-5-5-5-5-3-3-3-3-3-3-3-3--|
E|----------3-3-3-3-1-1-1-1-1-1-1-1--|

E|------------------------------------|
B|------------------------------------|
G|--5-5-5-5---------------------------|
D|--5-5-5-5-5-5-5-5-3333333333333333--|
A|--3-3-3-3-5-5-5-5-3333333333333333--|
E|----------3-3-3-3-1111111111111111--|
P.M.                ________________
                                               __
E|-----------------------------------|           |
B|-----------------------------------|           |
G|--5-5-5-5---------7-7-7-7----------|           |
D|--5-5-5-5-5-5-5-5-7-7-7-7-3-3-3-3--|           |
A|--3-3-3-3-5-5-5-5-5-5-5-5-3-3-3-3--|           |
E|----------3-3-3-3---------1-1-1-1--|           |
                                                 | 2X
E|-----------------------------------|           |
B|-----------------------------------|           |
G|--5-5-5-5--------------------------|           |
D|--5-5-5-5-5-5-5-5-3-3-3-3-3-3-3-3--|           |
A|--3-3-3-3-5-5-5-5-3-3-3-3-3-3-3-3--|           |
E|----------3-3-3-3-1-1-1-1-1-1-1-1--|         __|
P.M.                _______________

E|-----------------------------------|
B|-----------------------------------|  X5
G|--5-5-5-5--------------------------|
D|--5-5-5-5-5-5-5-5-3-3-3-3-3-3-3-3--|
A|--3-3-3-3-5-5-5-5-3-3-3-3-3-3-3-3--|
E|----------3-3-3-3-1-1-1-1-1-1-1-1--|

E|-------------------------|
B|-------------------------|
G|--5-5-5-5----------------|
D|--5-5-5-5-5-5-5-5-3~-----|
A|--3-3-3-3-5-5-5-5-3~-----|
E|----------3-3-3-3-1~-----|

Lyric

All I needed was an answer
I didn't ask for nothin more
and she said, "just leave your jacket at the door"
and we were locked inside
again it started here we go
if you can help me let me know.

So she asked if I could stay there
and I say we've been through this before
and she said, "just tell me, what do you expect here?"
and we were locked inside
again it started here we go
you can hold my hand, but

(chorus)

Don't go back on me
Just remember that it's gonna be alright
and you'll see we can have it all
Can't you see that I'm right here waiting, looking back at you
YOU and me, we've got nothing to lose. Oh yeah!

So she wraps me up inside her
and I knew we should not get that far
and she said, "just close your eyes and say you love me"
and we were locked inside, again..........

All I need to kill the pain
is for someone else to blame
and I've waited my whole life


Important: The song above is NOT stored on the Chordie server. The original song is hosted at www.xguitar.com. Chordie works as a search engine and provides on-the-fly formatting. Chordie does not index songs against artists'/composers' will. To remove this song please click here.

This song is displayed as text-only. Transposing and tuning is only available for chordpro-songs.

Login - add to songbook

Rating click stars to rate

Layout
Accuracy

SHARE PAGE  




You need to log in to post comments