Chordie logo


Instrumental    Box Car Racer



Intro- lasts very short
-5--5--5--5----
-x--x--x--x----
-2--2--2--2----
---------------
---------------
---------------

Riff 1
------------------------------------------------------------------
------------------------------------------------------------------
-6-6-------------6-6-------------6-6-------------6-6--------------
-6-6-7-7-7-7-7-7-6-6-------------6-6-4-4-4-4-4-4-6-6--------------
-4-4-7-7-7-7-7-7-4-4-7-7-7-7-7-7-4-4-4-4-4-4-4-4-4-4-7-7-7-7-7-7--
-----5-5-5-5-5-5-----4-4-4-4-4-4-----2-2-2-2-2-2-----4-4-4-4-4-4--

Riff 2
------------------------------------------------------------------
------------------------------------------------------------------
-9-9-9-9-8-8-8-8-9-9-9-9---------9-9-9-9---------9-9-9-9----------
-9-9-9-9-9-9-9-9-9-9-9-9-9-9-9-9-9-9-9-9-6-6-6-6-9-9-9-9-7-7-7-7--


Important: The song above is NOT stored on the Chordie server. The original song is hosted at www.xguitar.com. Chordie works as a search engine and provides on-the-fly formatting. Chordie does not index songs against artists/composers will. To remove this song please click here.

This song is displayed as text-only. Transposing and tuning is only available for chordpro-songs.

Login - add to songbook

Rating click stars to rate

Layout
Accuracy

SHARE PAGE  




You need to log in to post comments