Guitar Tabs, Chords and Lyrics


There Is    Box Car Racer



Band: BoxCar Racer
Song: There Is
Album: BoxCar Racer
I tabbed this from watching them Play live on Leno...first full song tab so i hope its right...i think so it sounds right.

Intro
Guitar1
E|-----------------------------------|
B|-----------------------------------|
G|-8-88-88-88-8888-6-66-66-66-6666---|
D|-X-XX-XX-XX-XXXX-X-XX-XX-XX-XXXX---|
A|-6-66-66-66-6666-4-44-44-44-4444---|
E|-----------------------------------|
Guitar2
E|-----------------------------------|
B|-----------------------------------|
G|-4-44-44-44-4444-4-44-44-44-4444---|
D|-X-XX-XX-XX-XXXX-X-XX-XX-XX-XXXX---|
A|-2-22-22-22-2222-2-22-22-22-2222---|
E|-----------------------------------|
Guitar1
E|-----------------------------------|
B|-----------------------------------|
G|-4-44-44-44-4444-6-66-66-----------|
D|-X-XX-XX-XX-XXXX-X-XX-XX-8-88-88---|
A|-2-22-22-22-2222-4-44-44-X-XX-XX---|
E|-------------------------6-66-66---|
Guitar2
E|-----------------------------------|
B|-----------------------------------|
G|-4-44-44-44-4444-4-44-44-44-4444---|
D|-X-XX-XX-XX-XXXX-X-XX-XX-XX-XXXX---|
A|-2-22-22-22-2222-2-22-22-22-2222---|
E|-----------------------------------|
(Play that all 2x)

Verse
guitar 1
e|--------------------------------------------------------------------|\\
B|--------------------------------------------------------------------| \\
G|-4-44-4-44-44444--4-44-4-44-44444--4-44-4-44-44444--4-44-4-44-44444-|  \\
D|-4-44-4-44-44444--4-44-4-44-44444--4-44-4-44-44444--4-44-4-44-44444-|  (4x)
A|-2-22-2-22-22222--x-xx-x-xx-xxxxx--x-xx-x-xx-xxxxx--x-xx-x-xx-xxxxx-|  /
E|------------------2-22-2-22-22222--4-44-4-44-44444--0-00-0-00-00000-|/

Chorus
guitar 1
e|--------------------------------------------------------------------|
B|--------------------------------------------------------------------|
G|-4-44-4-44-44444--4-44-4-44-44444--4-44-4-44-44444--4-44-4-44-44444-|
D|-4-44-4-44-44444--4-44-4-44-44444--4-44-4-44-44444--4-44-4-44-44444-|   (2x)
A|-2-22-2-22-22222--x-xx-x-xx-xxxxx--x-xx-x-xx-xxxxx--x-xx-x-xx-xxxxx-|
E|------------------2-22-2-22-22222--4-44-4-44-44444--2-22-2-22-22222-|

Play the Intro once (1x)

Verse 2x

Chorus 2x

Interlude ( not sure how many times this is played cuz the tape got screwy and skipped)
Guitar 1
e|--------------------------------------------------------------------|
B|--------------------------------------------------------------------|
G|-8-88-8-88-88888--9-99-9-99-99999--8-88-8-88-88888--9-99-9-99-99999-|
D|-x-xx-x-xx-xxxxx--x-xx-x-xx-xxxxx--x-xx-x-xx-xxxxx--x-xx-x-xx-xxxxx-|
A|-6-66-6-66-66666--7-77-7-77-77777--6-66-6-66-66666--7-77-7-77-77777-|
E|--------------------------------------------------------------------|
|guitar 2                                      	              |
e|--------------------------------------------------------------------|
B|--------------------------------------------------------------------|
G|-4-44-4-44-44444--4-44-4-44-44444--4-44-4-44-44444--4-44-4-44-44444-|
D|-4-44-4-44-44444--4-44-4-44-44444--4-44-4-44-44444--4-44-4-44-44444-|
A|-2-22-2-22-22222--x-xx-x-xx-xxxxx--2-22-2-22-22222--x-xx-x-xx-xxxxx-|
E|------------------2-22-2-22-22222-------------------2-22-2-22-22222-|
guitar 1
e|--------------------------------------------------------------------|
B|--------------------------------------------------------------------|
G|-8-88-8-88-88888--9-99-9-99-99999--8-88-8-88-88888--6-66-6-66-66666-|
D|-x-xx-x-xx-xxxxx--x-xx-x-xx-xxxxx--x-xx-x-xx-xxxxx--x-xx-x-xx-xxxxx-|
A|-6-66-6-66-66666--7-77-7-77-77777--6-66-6-66-66666--4-44-4-44-44444-|
E|--------------------------------------------------------------------|
 |                                                                    |
 |guitar 2                                      	              |
e|--------------------------------------------------------------------|
B|--------------------------------------------------------------------|
G|-----------------------------------4-44-4-44-44444--4-44-4-44-44444-|
D|-6-66-6-66-66666--4-44-4-44-44444--4-44-4-44-44444--4-44-4-44-44444-|
A|-6-66-6-66-66666--4-44-4-44-44444--2-22-2-22-22222--x-xx-x-xx-xxxxx-|
E|-4-44-4-44-44444--2-22-2-22-22222-------------------2-22-2-22-22222-|

Outro/Chorus
guitar 1
e|--------------------------------------------------------------------|
B|--------------------------------------------------------------------|
G|-4-44-4-44-44444--4-44-4-44-44444--4-44-4-44-44444--4-44-4-44-44444-|
D|-4-44-4-44-44444--4-44-4-44-44444--4-44-4-44-44444--4-44-4-44-44444-|   (2x)
A|-2-22-2-22-22222--x-xx-x-xx-xxxxx--x-xx-x-xx-xxxxx--x-xx-x-xx-xxxxx-|
E|------------------2-22-2-22-22222--4-44-4-44-44444--2-22-2-22-22222-|

and then this is played twice (2x)
guitar 1
e|--------------------------------------------------------------------|
B|--------------------------------------------------------------------|
G|-4-44-4-44-44444--4-44-4-44-44444--4-44-4-44-44444--4-44-4-44-44444-|
D|-4-44-4-44-44444--4-44-4-44-44444--4-44-4-44-44444--4-44-4-44-44444-|
A|-2-22-2-22-22222--x-xx-x-xx-xxxxx--x-xx-x-xx-xxxxx--x-xx-x-xx-xxxxx-|
E|------------------2-22-2-22-22222--4-44-4-44-44444--2-22-2-22-22222-|
 |guitar 2                                      	              |
e|--------------------------------------------------------------------|
B|--------------------------------------------------------------------|
G|-8-88-8-88-88888--6-66-6-66-66666--8-88-8-88-88888--6-66-6-66-66666-|
D|-x-xx-x-xx-xxxxx--x-xx-x-xx-xxxxx--x-xx-x-xx-xxxxx--x-xx-x-xx-xxxxx-|
A|-6-66-6-66-66666--4-44-4-44-44444--6-66-6-66-66666--4-44-4-44-44444-|
E|--------------------------------------------------------------------|

...and thats it...Enjoy!


Important: The song above is NOT stored on the Chordie server. The original song is hosted at www.xguitar.com. Chordie works as a search engine and provides on-the-fly formatting. Chordie does not index songs against artists/composers will. To remove this song please click here.

This song is displayed as text-only. Transposing and tuning is only available for chordpro-songs.

Login - add to songbook

Rating click stars to rate

Layout
Accuracy

SHARE PAGE  




You need to log in to post comments