Guitar Tabs, Chords and Lyrics


Failure by Design    Brand New



Brand New
Failure By Design
Drop D Tuning: DADGBE
Tabbed by: Chad(loserkidcs@hotmail.com)

Here's the intro for this song it's in Drop D tuning.

Intro (listen for palm muting)
E ----------------------------------------------------------------
B ----------------------4-----------------------------------------
G ---------------5---------5----5------------------------4--------
D -1-1-1-1---------5---------------------1-1-1-----5--------5---5-
A -1-1-1-1---3--------3--------3---------1-1-1-------5------------
E--1-1-1-1-------------------------------1-1-1---3-----3------3---

E-----------------------------------------------------------------
B--------------------4--------------------------------------------
G-------------5--------5---5---3-3-3------------------------------
D--1-1-1--------5--------------3-3-3------------------------------
A--1-1-1--3-------3------3-----1-1-1---1-3-1-0-1-0----------------


Important: The song above is NOT stored on the Chordie server. The original song is hosted at www.xguitar.com. Chordie works as a search engine and provides on-the-fly formatting. Chordie does not index songs against artists'/composers' will. To remove this song please click here.

This song is displayed as text-only. Transposing and tuning is only available for chordpro-songs.

Login - add to songbook

Rating click stars to rate

Layout
Accuracy

SHARE PAGE  




You need to log in to post comments