Guitar Tabs, Chords and Lyrics


Magazines    Brand New



Brand New
Magazines
Tabbed by: KennethCore
Tuned half-step down
(Eb Ab Db Gb Bb eb)

Intro/verse.....
Latisha you destroy me....
e|---------------------------------------------------------------------------
B|---------------------------------------------------------------------------
G|-----99------99----------777777----------777777----------------------------
D|-77--99--77--99--999999--777777--999999--777777--77--77--------------------
A|-77--77--77--77--999999--555555--999999--555555--77--77--------------------
E|-55 -----55------777777----------777777----------55--55--------------------

Chorus
last night......
e|---------------------------------------------------------------------------
B|---------------------------------------------------------------------------
G|-----------99999999--1111111111111111--77777777----------------------------
D|-77777777--99999999---9-9-9-9-9-9-9-9--77777777----------------------------
A|-77777777--77777777---9-9-9-9-9-9-9-9--55555555----------------------------
E|-55555555------------------------------------------------------------------

post choru
cuz you gotta know..... the one that goes.......
e|---------------------------------------------------------------------------
B|---------------------------------------------------------------------------
G|-----99999999------------7777777777777777--9999999999999999----------------
D|-77--99999999--44444444--7777777777777777--9999999999999999----------------
A|-77--77777777--44444444--5555555555555555--7777777777777777----------------
E|-55------------22222222----------------------------------------------------

Bridge
girl you've got my hand shakin.........
e|---------------------------------------------------------------------------
B|---------------------------------------------------------------------------
G|-----------99999999------------77777777------------------------------------
D|-77777777--99999999--44444444--77777777------------------------------------
A|-77777777--77777777--44444444--55555555------------------------------------
E|-55555555------------22222222----------------------------------------------



Important: The song above is NOT stored on the Chordie server. The original song is hosted at www.xguitar.com. Chordie works as a search engine and provides on-the-fly formatting. Chordie does not index songs against artists'/composers' will. To remove this song please click here.

This song is displayed as text-only. Transposing and tuning is only available for chordpro-songs.

Login - add to songbook

Rating click stars to rate

Layout
Accuracy

SHARE PAGE  




You need to log in to post comments