Guitar Tabs, Chords and Lyrics
Major upgrade!! After one year development the new version of Chordie is now online! Please give feedback.


The Shower Scene   Brand New

 
 -----------------------------------------------------------------
 -----------------------------------------------------------------
 --------------------------------------7-7b-7---------------------
 -5-5-5-5-5--1-1-1-1-1--5-5-5-5-5--1-1-x-x--x-5-5-5-5-5-1-1-1-1-1-
 -5-5-5-5-5--1-1-1-1-1--5-5-5-5-5--1-1-5-5b-5-5-5-5-5-5-1-1-1-1-1-
 -5-5-5-5-5--1-1-1-1-1--5-5-5-5-5--1-1--------5-5-5-5-5-1-1-1-1-1-

 


 


 (intro continued…)


 


 

 
 ---------------|
 ---------------|
 ---------------|
 -3-3-3-3-3--6-x|
 -3-3-3-3-3--6-x|
 -3-3-3-3-3--6-x|

 


 


 Verse x2


 


 

 
 -----------------------------------------------------------------
 -----------------------------------------------------------------
 --------------------------------------7-7b-7---------------------
 -5-5-5-5-5--1-1-1-1-1--5-5-5-5-5--1-1-x-x--x-5-5-5-5-5-1-1-1-1-1-
 -5-5-5-5-5--1-1-1-1-1--5-5-5-5-5--1-1-5-5b-5-5-5-5-5-5-1-1-1-1-1-
 -5-5-5-5-5--1-1-1-1-1--5-5-5-5-5--1-1--------5-5-5-5-5-1-1-1-1-1-
 ---------------------|
 ---------------------|
 ---------------------|
 -3-3-3-3-3--6-6-6-6-6|
 -3-3-3-3-3--6-6-6-6-6|
 -3-3-3-3-3--6-6-6-6-6|

 


 


 Chorus x1


 


 

 
 -8~~~--6~~--8~~~4~x--|
 -11~~--9~~--11~~6~x--|
 -10~~--8~~--10~~6~x--|
 -8~~~--6~~--8~~~4~x--|
 -8~~~--6~~--8~~~4~x--|
 -8~~~--6~~--8~~~4~x--|

 


 


 Repeat Verse x1


 


 Repeat Chorus x1


 


 After 2nd Chorus: x1


 


 

 
 --8--------6--------8---------4-x-|
 -11--------9--------11--------6-x-|
 -10-(x16)--8—(x16)--10-(x16)--6-x-|
 -8---------6--------8---------4-x-| then…
 -8---------6--------8---------4-x-|
 -8---------6--------8---------4-x-|

 


 


 Build Up x1


 


 

 
 --------------------------------------------------------11-11-11-11-11-11-11--|
 ------7-------7-------9-------9-------11-11------11-11--11-11-11-11-11-11-11--|
 ------x-------x-------x-------x-------x--x-------x--x---13-13-13-13-13-13-13--|
 -4-4--4--4-4--4--6-6--6--6-6--6--8-8--8--8--8-8--8--8---11-11-11-11-11-11-11--|
 -4-4-----4-4-----6-6-----6-6-----8-8--------8-8---------11-11-11-11-11-11-11--|
 -4-4-----4-4-----6-6-----6-6-----8-8--------8-8---------11-11-11-11-11-11-11--|

 


 . . . . . . . . . . . .


 


 Bridge


 


 -(clean guitar)----|


 

 
 ------------------x|
 ------------------x|
 ---5----5---------x| x1
 ---5----5--1-1--4-x|
 -5----5----1-1--4-x|
 -(heavily distorted guitar)-----------------------------------------------|
 -------------------------------------------------------------------xx—xx--|
 -------------6--------------6---6-------------6--------------6---6-xx—xx--|
 --5-5-5-5--1-4---5-5-5-5--1-4-5-4--5-5-5-5--1-4---5-5-5-5--1-4-5-4-xx—xx--| x2
 --5-5-5-5--1-4---5-5-5-5--1-4-5-4--5-5-5-5--1-4---5-5-5-5--1-4-5-4-xx—xx--|
 --5-5-5-5--1-----5-5-5-5--1---5----5-5-5-5--1-----5-5-5-5--1---5---xx—xx--|
 ------------------------|
 ------------------------|
 ------------------------|
 -5-5-5-5--5-5-5-5—13-13-| x1
 -5-5-5-5--5-5-5-5—13-13-|
 -5-5-5-5--5-5-5-5—13-13-|

 


 


 Outro


 


 

 
 ---------------------| |-----------------------------8---|
 ---------------------| |-----------------------------11--|
 ---------------------| |-----------------------------10--|
 -5---------1---------| |-5-5-5-5--5-5-5-5--5-5-5--7--8---| end…
 -5--(x16)--1--(x16)--| x4 |-5-5-5-5--5-5-5-5--5-5-5--7--8---|
 -5---------1---------| |-5-5-5-5--5-5-5-5--5-5-5--7--8---|


Important: The song above is NOT stored on the Chordie server. The original song is hosted at www.xguitar.com. Chordie works as a search engine and provides on-the-fly formatting. Chordie does not index songs against artists'/composers' will. To remove this song please click here.

This song is displayed as text-only. Transposing and tuning is only available for chordpro-songs.
Rate #1 of 2 versions

Login - add to songbook

SHARE PAGE  




You need to log in to post comments