Chordie logo


Away    Breaking Benjamin



Band: Breaking Benjamin
Song: Away
Album: We Are Not Alone
Tabbed By: innerfears

Tuning: Drop D, half a step down (Db Ab Db Gb Bb Eb)

Note: I didn\\'t bother tabbing the rhythm or the number of times certain notes are played, so just play along to the song and you\\'ll figure it out.

Intro

Eb -----------------------------------------------------------------
Bb -----------------------------------------------------------------
Gb -----------------------------------------------------------------
Db -----5-----5-----------------------------------------------------
Ab --------------2-0-----5------5--2-0----3---3--2-0---5---5--2-5---
Db --2-----2-----2-0-2------2------2-0-2----2----2-0-2---2----2-5---

repeat once

Intro lead part (with slight wah and maybe slight flange)
Eb --------------------------------------------------------------------
Bb --------------------------------------------------------------------
Gb --7-9--------9-9^-9-----9-9^-9-----9-9^-9----9-9^-9-----------------
Db --------------------------------------------------------------------
Ab --------------------------------------------------------------------
Db --------------------------------------------------------------------


Verse (palm muted)
Eb -----------------------------------------------------------------
Bb -----------------------------------------------------------------
Gb -----------------------------------------------------------------
Db -----------------------------------------------------------------
Ab -2-5-2-5-2-0-2-0-2-0-2-0-2--3--2--3--2-0-2--5--2--5--2--5--------
Db -2-5-2-5-2-0-2-0-2-0-2-0-2-----2-----2-0-2-----2-----2--5--------
    *-------------------------------------------------------

repeat once, then

Pre-Chorus (palm mute certain parts)
Eb -----------------------------------------------------------------
Bb -----------------------------------------------------------------
Gb -----------------------------------------------------------------
Db ----5-----5------------------------------------------------------
Ab -2-----2-----2-0-2--5--2--5--2-0-2--3--2--3--2-0---5---5-2-5-----
Db -2-----2-----2-0-2-----2-----2-0-2-----2-----2-0-2---2---2-5-----
    *     *         *     *         *     *

Chorus
Eb -----------------------------------------------------------------
Bb -----------------------------------------------------------------
Gb -5---4--------------5---4----------------------------------------
Db -5---5---5-----7----5---5----5-----------------------------------
Ab -3---3---5--5--5----3---3----5---5-------------------------------
Db ---------5--4--0-------------5---4-------------------------------

repeat once

Verse

Chorus

Break
Eb --------------------------------------------------------------------
Bb --------------------------------------------------------------------
Gb --------------------------------------------------------------------
Db --------------------------------------------------------------------
Ab -2-0-2-5-0-2-x-xx--x2-0-2-5-0-5-0--2-0-2-5-0-2-x-xx--x2-0-2-5-0-5-7-
Db -2-0-2-5-0-2-x-xx--x2-0-2-5-0-5-0--2-0-2-5-0-2-x-xx--x2-0-2-5-0-5-7-


Eb --------------------------------------------------------------------
Bb --------------------------------------------------------------------
Gb --------------------------------------------------------------------
Db --------------------------------------------------------------------
Ab -2-0-2-5-0-2-x-xx--x2-0-2-5-0-5-0--2-0-2-5-0-5-7--------------------
Db -2-0-2-5-0-2-x-xx--x2-0-2-5-0-5-0--2-0-2-5-0-5-7--------------------

Chorus

Outro

Eb --------------------------------------------------------------------
Bb --------------------------------------------------------------------
Gb --------------------------------------------------------------------
Db --------5-------------------5--------------------------------------
Ab -2-5-0--3--5-3-0-2---2-5-0--3--5-3-0-2------------------------------
Db -2-5-0-----5-3-0-2---2-5-0-----5-3-0-2------------------------------



Important: The song above is NOT stored on the Chordie server. The original song is hosted at www.xguitar.com. Chordie works as a search engine and provides on-the-fly formatting. Chordie does not index songs against artists/composers will. To remove this song please click here.

This song is displayed as text-only. Transposing and tuning is only available for chordpro-songs.

Login - add to songbook

Rating click stars to rate

Layout
Accuracy

SHARE PAGE  




You need to log in to post comments