Guitar Tabs, Chords and Lyrics


I Am God    Broken Hope



BROKEN HOPE - I AM GOD
                           From the Album LOATHING


.  - palm mute                    /  - slide up to
\  - slide down to                ~  - vibrato
h  - hammer on                    b  - bend
p  - pull off                          Suffixes for bend
ph - pinch harmonic                     f - full bend    h - half bend
*  - see comment                        r - release      t - tap bend
X  - percussion mute                    ~ - vibrato bend
@  - slight palm mute             () - ghost note, sustained note
"  - tremolo pick until next note  sh - semi harmonic

When there are two parts, the left channel is on top and the right
channel is on the bottom. If only one part is shown, both guitars are
playing it.

Tune to D (D,G,C,F,A,D)

Riff 1 (4 times)
|------------------------------------------------|
|------------------------------------------------|
|------------------------------------------------|
|----------------------------6-6-----------------|
|-2-2--------------4"---7"-4"4-4-----------------|
|-0-0----4"---3"-0"----------4-4---9tr12--8tr11--|
| .                          .
|------------------------------------------------|
|------------------------------------------------|
|------------------------------------------------|
|----------------------------6-6-----------------|
|-2-2--------------4"---7"-4"4-4---9tr12--8tr11--|
|-0-0----4"---3"-0"----------4-4-----------------|
  .                          .
Riff 2 (2 times)
|--------------------------------------------------------------|
|--------------------------------------------------------------|
|--------------------------------------------------------------|
|--------------------------------------------------------------|
|-------2-1---------------------2-1-----5---7---5--------2-1---|
|-0-000-----3-0-4-1-3-1-0-0-000-----3-4---4---4----0-000-----3-|
|
|--------------------------------------------------------------|
|--------------------------------------------------------------|
|--------------------------------------------------------------|
|---------------------------------------7---9---7--------------|
|-------2-1---------------------2-1---6---6---6----------2-1---|
|-0-000-----3-0-4-1-3-1-0-0-000-----3--------------0-000-----3-|

Riff 2 cont.
|--------------------------------------|
|--------------------------------------|
|--------------------------------------|
|--------------------------------------|
|-------------------2-1----3-3-3-3-3-3-|
|-0-4-1-3-1-0-0-000-----3--1-1-1-1-1-1-|
                           . . . . . .
Riff 3 (1 time)
|-------------------------------------------------|
|-------------------------------------------------|
|-------------------------------------------------|
|-------------6---5---5---------------------------|
|-2-2-2-2-2-2-4---5---5---2-2-2-2-2-2-------------|
|-0-0-0-0-0-0-4---3---3---0-0-0-0-0-0-3-0-2-2h3p2-|
| . . . . . .             . . . . . .
|-------------------------------------------------|
|-------------------------------------------------|
|-------------------------------------------------|
|-------------6---5---5---------------------------|
|-2-----------4---5---5---2-2-2-2-2-2-------------|
|-0-----------4---3---3---0-0-0-0-0-0-3-0-2-2h3p2-|
                          . . . . . .
Riff 4 (2 times)
|--------------------------------------------------------------|
|--------------------------------------------------------------|
|--------------------------------------------------------------|
|-------------6---5---5----------------------------------------|
|-2-2-2-2-2-2-4---5---5---2-2-2-2-2-2--------------2-2-2-2-2-2-|
|-0-0-0-0-0-0-4---3---3---0-0-0-0-0-0-6"--2"3"-----0-0-0-0-0-0-|
| . . . . . .             . . . . . .              . . . . . .
|--------------------------------------------------------------|
|--------------------------------------------------------------|
|--------------------------------------------------------------|
|-------------6---5---5----------------------------------------|
|-2-2-2-2-2-2-4---5---5---2-2-2-2-2-2-6"--2"3"-----2-2-2-2-2-2-|
|-0-0-0-0-0-0-4---3---3---0-0-0-0-0-0--------------0-0-0-0-0-0-|
  . . . . . .             . . . . . .              . . . . . .

Riff 4 cont.
|-------------------------------------|
|-------------------------------------|
|-------------------------------------|
|-6---5---5---------------------------|
|-4---5---5---2-2-2-2-2-2-------------|
|-4---3---3---0-0-0-0-0-0-3-0-2-2h3p2-|
              . . . . . .

Repeat Riff 1 (4 times)
Repeat Riff 2 (2 times)
Repeat Riff 3 (1 time)
Repeat Riff 4 (2 times)

Riff 5 (2 times)
|--------------------------------------------------|
|--------------------------------------------------|
|--------------------------------------------------|
|--------------------------------------------------|
|-2---------------ph------2------------------------|
|-0-----/7--6-----7br-----0-----/7--6-----8--7--3--|
|                 *1/2 bends
|--------------------------------------------------|
|--------------------------------------------------|
|--------------------------------------------------|
|-----------------ph-------------------------------|
|-2-----/7--6-----7br-----2-----/7--6-----8--7--3--|
|-0-----------------------0------------------------|

Riff 6 (4 times)
|------------------------------------------------|
|------------------------------------------------|
|------------------------------------------------|
|------------------------------------------------|
|-------------------------------------0"--3"-----|
|-0-0-4-3----0-0-4-3----0-0-4-3----1"--------2"--|
|
|------------------------------------------------|
|------------------------------------------------|
|------------------------------------------------|
|------------------------------------------------|
|-------------------------------------7"-10"-----|
|-0-0-9-8----0-0-9-8----0-0-9-8----8"--------9"--|

Repeat Riff 5 (2 times)
Repeat Riff 1 (4 times)
Repeat Riff 2 (2 times)
Repeat Riff 3 (1 time)
Repeat Riff 4 (2 times)

Ending
|----|
|----|
|----|
|----|
|-2--|


Important: The song above is NOT stored on the Chordie server. The original song is hosted at www.xguitar.com. Chordie works as a search engine and provides on-the-fly formatting. Chordie does not index songs against artists'/composers' will. To remove this song please click here.

This song is displayed as text-only. Transposing and tuning is only available for chordpro-songs.

Login - add to songbook

Rating click stars to rate

Layout
Accuracy

SHARE PAGE  




You need to log in to post comments