Guitar Tabs, Chords and Lyrics


Glory Days    Bruce Springsteen



Glory Days - Bruce Springsteen
Brummyjr221
Email: brummyjr221@aol.com
This is the intro and most of the song.

intro
E ------------------------------------------------------------
B ------------------------------------------------------------
G --------------5-5-5--7--5-----------------------------------
D -5-5--9--5----5-5-5--7--5-----------------------------------  x2
A -5-5--9--5----7-7-7--9--7-----------------------------------
E -7-7--7--7--------------------------------------------------

chorus/verse (throughout song)
E ---------------7-7--9--7------------------------------------
B --7-7--9--7-------------------------------------------------
G ------------------------------------------------------------ over and
D ------------------------------------------------------------   over
A ------------------------------------------------------------


Important: The song above is NOT stored on the Chordie server. The original song is hosted at www.xguitar.com. Chordie works as a search engine and provides on-the-fly formatting. Chordie does not index songs against artists'/composers' will. To remove this song please click here.

This song is displayed as text-only. Transposing and tuning is only available for chordpro-songs.

Login - add to songbook

Rating click stars to rate

Layout
Accuracy

SHARE PAGE  




You need to log in to post comments