Guitar Tabs, Chords and Lyrics


Adam Raised a Cain    Bruce Springsteen



Song: ADAM RAISED A CAIN
Bruce Springsteen and The E Street Band
Album: Darkness On The Edge Of Town (1978)
Transcribed by:
Edgar Aguilera 17/3/2003, forced_to_confess@yahoo.com


Fig.1
   Em  . Am.   .    Em  . Am.   .    Em  . Am.   .    Am  . Em .   .
 ||----------------|----------------|----------------|-----------------||
4||----------------|----------------|----------------|-----------------||
4||----------------|----------------|----------------|------------(10/0)|
 ||0-3-r-5-----r--0|0-3-r-5-----r--0|0-3-r-5-----r--0|5-3-0-12-----r---||

 Fig.2
 Am  .   .   .    C   .   .   .    Am  .   .   .    C   .   .   .
|----------------|----------------|----------------|----------------|
|----------------|----------------|----------------|----------------|
|----------------|----------------|----------------|----------------|
|5---r-5-5---r-7-|8---r-8-8---r-7-|5---r-5-5---r-7-|8---r-8-8---r-7-|
prisoners of ..                   standin'  ..     standin' in the rain

 Am  .   .   .    B7  .   .   .
|----------------|----------------||
|----------------|----------------||
|----------------|----------------||
|5---r-5-5-5-r-5-|7-7-7-7-7-7-0---||
same hot..        in our veins. Adam..

Fig.3 CHORUS
  Em  .   .   .    .   .   .   .    .   .   .   .    .   .   .   .
||----------------|----------------|----------------|----------------||
||----------------|----------------|----------------|----------------||
||----------7-5-7-|----------7-5-7-|----------7-5-7-|----------------||
||3-0-r-0-r-------|3-0-r-0-r-------|3-0-r-0-r-------|3-0-r-0---------||
 raised a ..       raised a ..       raised a ..       raised a ..


. ...beat
/....slide up or down
h....hammer
p....pull


Important: The song above is NOT stored on the Chordie server. The original song is hosted at www.xguitar.com. Chordie works as a search engine and provides on-the-fly formatting. Chordie does not index songs against artists'/composers' will. To remove this song please click here.

This song is displayed as text-only. Transposing and tuning is only available for chordpro-songs.

Login - add to songbook

Rating click stars to rate

Layout
Accuracy

SHARE PAGE  




You need to log in to post comments