Chordie logo


Cruza La Frontera    Brujeria



Band: Brujeria
Song: Cruza La Fronteria/Crossing The Border
Album: Matando Güeros
Transcribed by: Andrew Collyer
Contact: the_hauntedcrown@hotmail.com

Copyright (c) Roadrunner Records, 1993

TUNING: A D G C E A

. - palm mute / - slide up to
\ - slide down to ~ - vibrato
h - hammer on p - pull off
, - slight palm mute () - ghost note, sustained note
" - tremolo note  - Trill

Suffixes for bend
f - full bend h - half bend
ph - pinched harmonic q - quarter bend
t - tap bend * - see comment
^ - Hold bend r - release bend
x – Stuccatto ~ - vibrato bend


Riff 1 (play 4 times)
----------------------------------------
----------------------------------------
----------------------------------------
-6-5-------6-5-------6-5-------6-5--9-8-
-4-3-------4-3-------4-3-------4-3--7-6-
----------------------------------------

----------------------------------------
----------------------------------------
----------------------------------------
-------------------------------6-5--9-8-
-----8-9-8-----8-9-8-----8-9-8-4-3--7-6-
-----6/7\6-----6/7\6-----6/7\6----------

Riff 2 (play 2 times)
----------------------------------------
----------------------------------------
----------------------------------------
-6-5-------6-5-------6-5-------6-5--9-8-
-4-3-8-9-8-4-3-8-9-8-4-3-8-9-8-4-3--7-6-
-----6/7\6----6/7\6------6/7\6----------

Riff 1 x 1
Riff 2 x 1

Riff 3 (play 4 times)
----------------------------------------
----------------------------------------
----------------------------------------
------5-----------5---------------------
------3-------7-7-3---------------------
-5555----5555-5-5-----------------------
 ....    .... . .

Riff 4 (play 4 times)
----------
----------
----------
-3--6--5--
-1--4--3--
----------

Riff 3 x 1

Riff 5 (play 2 times)
-----------------
-----------------
-----------------
----6--5---------
-5--4--3--8-3----
-3--------6-1----

Riff 2 x 3

End
-----
-----
-----
-----
-8-7-


Important: The song above is NOT stored on the Chordie server. The original song is hosted at www.xguitar.com. Chordie works as a search engine and provides on-the-fly formatting. Chordie does not index songs against artists/composers will. To remove this song please click here.

This song is displayed as text-only. Transposing and tuning is only available for chordpro-songs.

Login - add to songbook

Rating click stars to rate

Layout
Accuracy

SHARE PAGE  




You need to log in to post comments