Guitar Tabs, Chords and Lyrics


Sacrificio    Brujeria



Band: Brujeria
Song: Sacrificio/Sacrifice
Album: Matando Güeros

Transcribed by: Andrew Collyer
Contact: the_hauntedcrown@hotmail.com

Copyright (c) Roadrunner Records 1993

TUNING: A D G C E A

. - palm mute / - slide up to
\ - slide down to ~ - vibrato
h - hammer on p - pull off
, - slight palm mute () - ghost note, sustained note
" - tremolo note  - Trill

Suffixes for bend
f - full bend h - half bend
ph - pinched harmonic q - quarter bend
t - tap bend * - see comment
^ - Hold bend r - release bend
x – Stuccatto ~ - vibrato bend


Riff 1 (play twice)
-------------------------------
-------------------------------
-------------------------------
-8----4---5---3----------------
-8----4---5---3----------------
-6----2---3---1--1-1-1-1-1-1-1-
                 . . . . . . .

Riff 2 (play 4 times)
------------
------------
------------
-2---3-2--2-
-2---3-2--2-
-0---1-0--0-

Riff 3 (mostly bass part) (play 3 times)
---------------
---------------
---------------
-2------2-3-2--
-2------2-3-2--
-0------0-1-0--

Riff 4 (play 6 times)
--------------------
--------------------
--------------------
-2-3-2--------------
-2-3-2--------------
-0-1-0--000-000-000-
        ... ... ...

Riff 5 (play 8 times)
------------
------------
----4-------
-4--4--7--5-
-4--2--7--5-
-2-----5--3-

Riff 3 x 1
Riff 4 x 1
Riff 5 x 1

End
-------------------
-------------------
-------------------
-------------2-3-2-
-------------2-3-2-
-000-000-000-0-1-0-


Important: The song above is NOT stored on the Chordie server. The original song is hosted at www.xguitar.com. Chordie works as a search engine and provides on-the-fly formatting. Chordie does not index songs against artists'/composers' will. To remove this song please click here.

This song is displayed as text-only. Transposing and tuning is only available for chordpro-songs.

Login - add to songbook

Rating click stars to rate

Layout
Accuracy

SHARE PAGE  




You need to log in to post comments