Guitar Tabs, Chords and Lyrics


La Migra (Cruza La Frontera II)    Brujeria



Song: La Migra
Band: Brujeria
Album: Raza Odiada
Transcribed: pinche greсudo loko [albafreak1@juno.com]
Instrument: Guitar


in this tab, i have my guitar set to DADGBE [from low to high]...i will
be updating it later on to ADGCEA [what it should be tuned to kuz asesino
plays a 7 string guitar]...but i have tabbed this song first in drop D...
enjoy it for the moment...


Intro: play , then--->	    Pre-Verse: play 1x
E|------------------------|--------------------------|
B|------------------------|--------------------------|
G|------------------------|--------------------------|
D|------------------------|--------------------------|
A|--4444444444--5-55-5-5--|--2/5---2/5---2/5---2/5---|
D|--3333333333--5-55-5-5--|--2/5---2/5---2/5---2/5---|
PM              . .. . .


Interlude: 1x	  Verse: play about 8x's
E|---------------|----------------------------|
B|---------------|----------------------------|
G|--7/8/9\7/8/9--|--------7-6-3-------9-9-10--|
D|--5/6/7\5/6/7--|--------x-x-1-------x-x--x--|
A|--5/6/7\5/6/7--|--3-3-3-5-4-1-3-3-3-7-7--9--|
D|--5/6/7\5/6/7--|--3-3-3-----1-3-3-3---------|

Chorus: about 9x's
E|------------|
B|------------| note: on the "2's" i strum
G|-"La Migra"-|	     so it's up to u on how
D|------------|	     u want to play it!!!
A|--0-222-0---|
D|--0-222-0---|
pm    ...

Pre-Verse 2: play 1x
E|---------------------|
B|---------------------|
G|--------------7/8/9--|
D|--------------5/6/7--|
A|--2/5---2/5---5/6/7--|
D|--2/5---2/5---5/6/7--|

Verse 2: play about 8x's
E|----------------------------|
B|----------------------------|
G|--------7-6-3-------9-9-10--|
D|--------x-x-1-------x-x--x--|
A|--3-3-3-5-4-1-3-3-3-7-7--8--|
D|--3-3-3-----1-3-3-3---------|

Pre-Outro: play about 17x's
E|------------|
B|------------| note: on the "2's" i strum
G|-"La Migra"-|	     so it's up to u on how
D|------------|	     u want to play it!!!
A|--0-222-0---|
D|--0-222-0---|
pm    ...

Outro: play 1x
E|----------------------|
B|----------------------|
G|-------7/8/9\7/8/9----|
D|-------5/6/7\5/6/7-3--|
A|--2/5--5/6/7\5/6/7-3--|
D|--2/5--5/6/7\5/6/7-3--|

that's it...and it's all in order it is played on the track...but remember
that i will be updating this tab...down tuning it to A in order to get


Important: The song above is NOT stored on the Chordie server. The original song is hosted at www.xguitar.com. Chordie works as a search engine and provides on-the-fly formatting. Chordie does not index songs against artists'/composers' will. To remove this song please click here.

This song is displayed as text-only. Transposing and tuning is only available for chordpro-songs.

Login - add to songbook

Rating click stars to rate

Layout
Accuracy

SHARE PAGE  




You need to log in to post comments