Heaven

Bryan Adams

E|---------------------

B|-----1-----(1)-----1-
G|-----0-------------0-
D|---2-----2-------2--- 2 times
A|-3-----3-------3-----
E|---------------------
E|------0-------------------------3-----------------------------1-------0-
B|-1----1-------------------------3----------3----------------3---------1-
G|-0----2-------------------------0--------0----------------2--------2----
D|-2----2-------------------------0----(0)----------------0--------2------
A|-3----0-------------------------2---------------------------------------
E|--------------------------------3---------------------------------------
E|-------------1--------------3---
B|-------------3--------------3---
G|---------2--------------0-------
D|-------0----------------0-------
A|------------------------2-------
E|------------------------3-------
E|------0-------------------------3--------------------------------1-------0-
B|-1----1-------------------------3----------3-------------------3---------1-
G|-0----2-------------------------0--------0-------------------2--------2----
D|-2----2-------------------------0----(0)-------------------0--------2------
A|-3----0-------------------------2------------------------------------------
E|--------------------------------3------------------------------------------
E|----------------1----------------------3-----------------
B|--------3-------3-----3----------------3-----------------
G|----2--------2----2-0-0----------------0-----------------
D|-0-------------------------------------0-----------------
A|---------------------------------------2-----------------
E|---------------------------------------3-----------------
E|----1----------3-----------0----(0)----------------------------0--------
B|----1----------3-----------1-----1-------------------1---------1-----1--
G|----2----------0-----------2---2---------------------0---------2-----2--
D|----3----------0-----------2---2-------------------2---2-------2--------
A|---------------2-----------0---------------(2)--3--------3---------0----
E|---------------3--------------------------------------------------------
E|-----1---------3-------0------0------------------------
B|-----1---------3-------1------1---------------3--------
G|-----2---------0-------2-----------------0--------0----
D|-----3---------0-------2----2----2-------------------0-
A|---------------2-------------------0-------------------
E|---------------3---------------------3-----------------
E|----1----------3-----------0----(0)----------------------------0--------
B|----1----------3-----------1-----1-------------------1---------1-----1--
G|----2----------0-----------2---2---------------------0---------2-----2--
D|----3----------0-----------2---2-------------------2---2-------2--------
A|---------------2-----------0---------------(2)--3--------3---------0----
E|---------------3--------------------------------------------------------
E|-----1---------3-------0------0-----------------------3--------------------------
B|-----1---------3-------1------1---------------3---------------3---3------3-----3-
G|-----2---------0-------2-----------------0--------0-----------0---0------0-----0-
D|-----3---------0-------2----2----2--------------------------0----------0---------
A|---------------2-------------------0---------------------2------2---2h3-----3----
E|---------------3---------------------3-------------------------------------------

 CAmG
 Oh, once in your life you find someone
 DmAm
Who will turn your world around
 DmG
Bring you up when you're feeling down
 CAmG
 Yeah, nothing could change what you mean to me
 DmAm
Oh there's lots that I could say
 DmG
But just hold me now, 'cause our love will light the way

CHORUS 2 (The Chords are strummed down)

 FGAm
 Baby you're all that I want
 CF
When you're lying here in my arms
 FGAmG
 I'm finding it hard to believe we're in heaven (FILL1)
 FGAm
 And love is all that I need
 CF
And I found it here in your heart
 FGAmG
 It isn't too hard to see we're in heaven (FILL 2)

FILL 1

E|-3-----3-
B|---3---3-
G|-------0-
D|-------0-
A|-------2-
E|---------


FILL 2
E|----/5--5\3--3\2/3--2--/--5--2--
B|-3------------------3--/--5--3--
G|--------------------------------
D|--------------------------------
A|--------------------------------
E|--------------------------------


BRIDGE

 DmF
 I've been waiting for so long
 CAm
For something to arrive
 DmG
For love to come along
 DmF
 Now our dreams are coming true
 CAm
Through the good times and the bad
 G
 Yeah, I'll be standing there by you.

FLUTE SOLO

CHORUS (same pattern as the first chorus)

OUTRO
E|---------------------
B|-----1-----(1)-----1-
G|-----0-------------0-
D|---2-----2-------2--- 4 times
A|-3-----3-------3-----
E|---------------------

we-re in heaven

 ----
 ANY MISTAKES? (I'M SURE THERE WILL BE SOME ;) PLEASE CORRECT ME
BJOERN.ELSNER@gmx.de


Am C Dm F G
variations - click chord images
Transpose chords:
Tuning:
Cool service:
View: Size:
A  A  A
Rating:
Layout:
  • Currently 3/5 Stars.
  • 1
  • 2
  • 3
  • 4
  • 5
 
Accuracy:
  • Currently 3.4/5 Stars.
  • 1
  • 2
  • 3
  • 4
  • 5
 
click stars to rate
Chordie recommends:
Learn to play guitar with video-based, online guitar lessons at JamPlay.com
Songbook:
Login to add this song to your songbook
Support the artist
Preview/buy this song
MSN Music
Why this non-profit ad?

 
login to add comments/video/corrections