"yes"; ?> El Cuarto De Tula by Buena Vista Social Club - guitar chords, guitar tabs and lyrics - chordie

El Cuarto De Tula

Buena Vista Social Club

 AmEEAmAmEEAm
-------------------------------------------------
-------------------------------------------------
--2-2-1-4-----4-4-2-5------2-2-1-4-----4-4-2-5---
-------------------------------------------------
-------------------------------------------------
-------------------------------------------------

 AmEEAm
-------------------------------------------------
-------------------------------------------------
--5-4-2--------------4-2-1-----------------------
--------5-3-2-0-------------3-2-0----------------
------------------------------------3------------
-------------------------------------------------

 AmEEAm
-------------------------------------------------
-------------------------------------------------
--5-4-2--------------4-2-1-----------------------
--------5-3-2-0-------------3-2-0----------------
------------------------------------3------------
-------------------------------------------------

 AmGFE
En el barrio la cachimba se ha formado la corredera
 AmGFE
En el barrio la cachimba se ha formado la corredera
 AmGFE
Alli fueron los bomberos con sus campanas sus sirenas
 AmGFE
 Alli fueron los bomberos con sus campanas sus sirenas
 EAmEAmEAmEAm
 Ay mama que paso, ay mama que paso
 EAm
El cuarto de Tula, se cogio candela
 EAm
se quedo dormida y no, apago la vela

























Am E F G
variations - click chord images
Transpose chords:
Tuning:
Cool service:
View: Size:
A  A  A
Rating:
Layout:
  • Currently 3.7/5 Stars.
  • 1
  • 2
  • 3
  • 4
  • 5
 
Accuracy:
  • Currently 1.9/5 Stars.
  • 1
  • 2
  • 3
  • 4
  • 5
 
click stars to rate
Chordie recommends:
Learn how to play guitar at JamPlay.com
Songbook:
Login to add this song to your songbook
Support the artist
Preview/buy this song
MSN Music
Why this non-profit ad?

 
login to add comments/video/corrections