Guitar Tabs, Chords and Lyrics


Naar himmelen klarner    Burzum



Burzum - Naar Himmelen Klarner (From the "Det Som Engang Var" record)

Tabbed by Psycho (battlescar_psy@hotmail.com)
---------------------------------------------------------------------

Riff 1 (x2)
e[------------------------------]
b[------------------------------]
g[------------------------------]
d[---2-3---2-3-5-3--------------]
a[-0-----0----------------------]
E[------------------------------]

Riff 2 (x2)
e[----------------------------------]
b[----------------------------------]
g[----------------------------------]

d[---2-3---2-3-5-3-2-0--------------]
a[-0-----0--------------------------]
E[----------------------------------]

Riff 3 (This one is wrong, to messy to make out...)
e[------------------------------------------------------------------]
b[------------------------------------------------------------------]
g[-----0------------------------------------------------------------]
d[---2---2--5-5-7---------------------------------------------------]
a[-0--------3-3-5---------------------------------------------------]
E[------------------------------------------------------------------]

Riff 4
e[------------------------------------------------------------------]
b[------------------------------------------------------------------]
g[------------------------------------------------------------------]
d[------------------------------------------------------------------]
a[---7-----8-----7--------------------------------------------------]
E[-5---5-6-----5---5-3h5p3-1----------------------------------------]

Riff 5
e[------------------------------------------------------------------]
b[------------------------------------------------------------------]
g[------------------------------------------------------------------]
d[------------------------------------------------------------------]
a[---------3-----------5---3----------------------------------------]


Important: The song above is NOT stored on the Chordie server. The original song is hosted at www.xguitar.com. Chordie works as a search engine and provides on-the-fly formatting. Chordie does not index songs against artists'/composers' will. To remove this song please click here.

This song is displayed as text-only. Transposing and tuning is only available for chordpro-songs.

Login - add to songbook

Rating click stars to rate

Layout
Accuracy

SHARE PAGE  




You need to log in to post comments